Aslan - Crazy World Chords & Tabs

 

Crazy World Chords & Tabs

Aslan Chords & Tabs

Version: 1 Type: Bass Tab

Crazy World Bass Tab

Intro
G|-----------|-----------|------------|
D|-----------|-----------|------------| 
A|--5--------|--7--------|--10--------|
E|-----------|-----------|------------|

Bass riff 1  played over D
G|------------------------------------|
D|----------------2-4---3-0-3---------| 
A|--5-5-5-0-5---5-----5-------5-3-5---| x1
E|------------------------------------|
[ Tab from: https://www.guitartabs.cc/tabs/a/aslan/crazy_world_btab.html ]
Bass riff 2  played over Em
G|------------------------------------------|
D|------------------------------------------| 
A|--7-p-5-h-7-p-5-h-7--5--------------------| x2
E|-----------------------7-s-3--------------|

Bass riff 3  played over G
G|-----------------------------------------------|
D|-----------------------------------------------| 
A|--10-p-8-h-10-p-8-h-10--8----------------------| x2
E|---------------------------10-s-3--------------|