Area 7 - Start Making Sense Chords & Tabs

 

Start Making Sense Chords & Tabs

Area 7 Chords & Tabs

Version: 1 Type: Bass Tab

Start Making Sense Bass Tab

   
Riff 1 (Intro):
G--------------------------------------------------|
D--------------------------------------------------|
A----------33333----55555----2--32-323232----------|
E-00000--------------------------------------------|

Riff 2 (Verse + Bridge):
G------------------------------------------------------------------|
D------------------------------------------------------------------|
A--77-777-7-7-777733-333-3-3-333355-555-5-5-5555-222-222-222-222---|
E------------------------------------------------------------------|

G------------------------------------------------------------------|
D------------------------------------------------------------------|
A--77-777-7-7-777733-333-3-3-333355-555-5-5-5555-2--32-323232------|
E------------------------------------------------------------------|

G------------------------------------------------------------------|
D------------------------------------------------------------------|
A--77-777-7-7-777733-333-3-3-333355-555-5-5-5555-222-222-222-222---|
E------------------------------------------------------------------|

G------------------------------------------------------------------|
D------------------------------------------------------------------|
A--77-777-7-7-777733-333-3-3-333355-555-5-5-5555-2--32-323232------|
E------------------------------------------------------------------|

G------------------------|
D------------------------|
A--2-32-323235-----------|
E------------------------|

Riff 3 (Chorus):
G--------------------------------------------------|
D--------------------------------------------------|
AŚ---------55-555--533-333-333-33210---------------|
E--33-333-3----------------------------------------|
                               |____|
                    This is a 3-2-1-0 played real fast
[ Tab from: https://www.guitartabs.cc/tabs/a/area_7/start_making_sense_btab.html ]
G--------------------------------------------------|
D--------------------------------------------------|
AŚ---------55-555--533-333-333-33210--2-32-323232--|
E--33-333-3----------------------------------------|

Riff 4 (Shorter Verse):
G---------------------------------------------------------------------|
D---------------------------------------------------------------------|
A-7777777777777777-3333333333333333-5555555555555555-2222222222222222-|
E---------------------------------------------------------------------|

G------------------------------------------------------------------|
D------------------------------------------------------------------|
A-7777777777777777-3333333333333333-5555555555555555-2--32-323232--|
E------------------------------------------------------------------|


Riff 5 (Long Chorus/Outro): x3
G--------------------------------------------------|
D--------------------------------------------------|
AŚ---------55-555--533-333-333-33210---------------|
E--33-333-3----------------------------------------|
                               |____|
                    This is a 3-2-1-0 played real fast

G------------------------------------------------------------------|
D------------------------------------------------------------------|
AŚ---------55-555--533-333-333-33210--2-32-323232--2-32-323235~-7~-|
E--33-333-3--------------------------------------------------------|

G----------------------------------------------------------|
D----------------------------------------------------------|
AŚ10-10-10-10--5555--33333333-2-32-323232--2-32-323235~-7~-|
E----------------------------------------------------------|

STRUCTURE:

Riff 1 x 2
Riff 2 x 1
Riff 3 x 1
Riff 4 x 1
Riff 3 x 1
Riff 1 x 2
Riff 2 x 1
Riff 5 x 1

www.area7.com.au