Arctic Monkeys - Riot Van Chords & Tabs

 

Riot Van Chords & Tabs

Arctic Monkeys Chords & Tabs

Version: 5 Type: Chords

Riot Van Chords

   
I've put the chords up for the first verse and the chorus, rest of the songs the same. 
solo's played with a tremelo effect if you've got one, and only has the bass playing in 
background.

   Dmaj7    C#m7    Bm7      A       E      E6
|----2-------4-------2-------0-------0-------0----|
|----2-------5-------3-------2-------0-------2----|
|----2-------4-------2-------2-------1-------1----|
|----0-------6-------4-------2-------2-------2----|
|----x-------4-------2-------0-------2-------2----|
|----x-------x-------x-------x-------0-------0----|

              Dmaj7 C#m7
Up rolled the riot van
   Bm7                              Dmaj7 C#m7
And sparked excitement in the boys
   Bm7                          Dmaj7 C#m7
But the policemen look annoyed
   Bm7                                    Dmaj7 C#m7 Bm7
Perhaps these are ones they should avoid
[ Tab from: https://www.guitartabs.cc/tabs/a/arctic_monkeys/riot_van_crd_ver_5.html ]
A                          C#m7                         Bm7          E  E6  E
They got a chase last night from men with truncheonís dressed in hats
A                             C#m7                              Bm7
They didnít do that much wrong, still ran away though for the laugh
                   E  E6  E
just for the laugh


Please just stop talking
Because they wonít find us if you do
Oh those silly boys in blue
Well they wonít catch me and you

Have you been drinking son, you donít look old enough to me
Iím sorry officer is there a certain age youíre supposed to be?
nobody told me

Up rolled the riot van
And these lads just wind the coppers up
Ask why they donít catch proper crooks
Get their address and their nameís took
But they couldnít care less

SOLO
|---------------------------------|-----------------------------------|
|---------------------------------|-----------------------------------|
|---------------------------------|--------------------------4/9--\---|
|-----------------9\4-----4\2-----|-----------------4/11--------------|
|----0-----9\4--------------------|----0-----9\4----------------------|
|---------------------------------|-----------------------------------|

He got thrown in the riot van
And all the coppers kicked him in
And there was no way he could win
Just had to take it on the chin