Arctic Monkeys - From The Ritz To The Rubble Chords & Tabs

 

From The Ritz To The Rubble Chords & Tabs

Arctic Monkeys Chords & Tabs

Version: 3 Type: Tab

From The Ritz To The Rubble Tab

   
Arctic Monkeys  From The Ritz To The Rubble

Alot of peeps done this tab but it jus dont sound rite atall so I got fed up an made it 
self, im a tab virgin (never rote a tab of a song before)

Intro / Verse
(guitar 1)
e|-7----7-/-10----10--7----7-|
B|-7----7-/-10----10--8----8-|	Play this a load of times
G|-8----8-/-11----11--9----9-|
D|-9----9-/-12----12--9----9-|
A|-9----9-/-12----12--7----7-|
E|-7----7-/-10----10---------|

(guitar 2)
e|----------------------------------------|
B|----------------------------------------|
G|-16--14-11----11----------7---------9---|      x2
D|------------14----9---7-9-------7-9-----|
A|----------------------------------------|
E|----------------------------------------|

Chorus
(guitar 1)
e|--------------------------------------------------|
B|--------------------------------------------------|
G|--------------------------------------------------|
D|-------------------7-9-7-9--------9999999999999999|  x4
A|-5-7-5-7--7-9-7-9-----------------9999999999999999|
E|----------------------------------7777777777777777|
(guitar 2)
e|--------------------------------------------------|
B|--------------------------------------------------|
G|--------------------------------------------------|
D|-------------------7-9-7-9------------------------|  x3
A|-5-7-5-7--7-9-7-9-----------------14-12---9-7---7-|
E|--------------------------------------------------|
On the 4th time play this
(guitar 2)
e|-------------------------------------|
B|-------------------------------------|
G|-------------------------------------|
D|------------------7-9-7-9------------|
A|-5-7-5-7--7-9-7-9------------------5~|
E|-------------------------------------|

Verse
(guitar 1)
e|-7----7-/-10----10--7----7-|
B|-7----7-/-10----10--8----8-|	And again repeat loads
G|-8----8-/-11----11--9----9-| (But it has a slightly different
D|-9----9-/-12----12--9----9-| strumming pattern so ull have 2
A|-9----9-/-12----12--7----7-| Listen closely)
E|-7----7-/-10----10---------|

Chorus
(guitar 1)
e|------------------------------------------------------------------|
B|------------------------------------------------------------------|
G|------------------------------------------------------------------|
D|-------------------7-9-7-9--------9-9-9-9-9-9-9-9-9-9-9-9-9-9-9-9-|
A|-5-7-5-7--7-9-7-9-----------------9-9-9-9-9-9-9-9-9-9-9-9-9-9-9-9-|
E|----------------------------------7-7-7-7-7-7-7-7-7-7-7-7-7-7-7-7-|

(guitar 2)
e|--------------------------------------------------|
B|--------------------------------------------------|
G|--------------------------------------------------|
D|-------------------7-9-7-9------------------------|  x3
A|-5-7-5-7--7-9-7-9-----------------14-12---9-7---7-|
E|--------------------------------------------------|
On the 4th time play this
(guitar 2)
e|------------------------------------|
B|------------------------------------|
G|------------------------------------|
D|------------------7-9-7-9-----------|
A|-5-7-5-77-9-7-9------------------5~|
E|------------------------------------|
[ Tab from: https://www.guitartabs.cc/tabs/a/arctic_monkeys/from_the_ritz_to_the_rubble_tab_ver_3.html ]
Bridge (clean guitar)
(guitar 1)
e|-7-7-7-7-7-7-7-7-7-7-7-7-7-7-7-7---10-10-10-10-10-10-10-10---7-7-7-7-7-7-7-7-|
B|-7-7-7-7-7-7-7-7-7-7-7-7-7-7-7-7---10-10-10-10-10-10-10-10---8-8-8-8-8-8-8-8-|
G|-8-8-8-8-8-8-8-8-8-8-8-8-8-8-8-8---111111-11-11-11-11-11---9-9-9-9-9-9-9-9-|
D|-9-9-9-9-9-9-9-9-9-9-9-9-9-9-9-9---12-12-12-12-12-12-12-12---9-9-9-9-9-9-9-9-| x6
A|-9-9-9-9-9-9-9-9-9-9-9-9-9-9-9-9---12-12-12-12-12-12-12-12---7-7-7-7-7-7-7-7-|
E|-7-7-7-7-7-7-7-7-7-7-7-7-7-7-7-7---10-10-10-10-10-10-10-10-------------------|

Solo
e|-------------------------------------------------------------------------------------|
B|-------------------------------------------------------------------------------------|
G|-------------------------------------------------------------------------------------|
D|-------------------------------------------------------------------------------------|
A|-0-222222222----999-777-55555555---12121212-99-7-9----12121212-9-7-5-555555-77777777-|
E|-------------------------------------------------------------------------------------|

e|--------------------------------------------------------|
B|--------------------------------------------------------|
G|--------------------------------------------------------|
D|--------------------------------------------------------|
A|-22222222---999-777-55555555---1212121212-1414-99999999-|
E|--------------------------------------------------------|

e|-------------------------------------------------|
B|-------------------------------------------------|
G|-------------------------------------------------|
D|-------------------------------------------------|
A|-121212-141414-1717171717171717-1919191919191919-|
E|-------------------------------------------------|

e|------------------------------------------------------|
B|------------------------------------------------------|
G|16-16-16-16-16-16-14-14-11-11-11-11-11-11-------11-11-|
D|------------------------------------------14-14-------|
A|------------------------------------------------------|
E|------------------------------------------------------|

e|-------------------------------------------------------------------------|
B|-------------------------------------------------------------------------|
G|---------------------------------7-7-7-7-7-7-7-7---------9-9-9-9-9-9-9-9-|
D|-9-9-9-9-9-9-9-9-9-9-9-9-7-7-9-9-----------------7-7-9-9-----------------|
A|-------------------------------------------------------------------------|
E|-------------------------------------------------------------------------|

e|------------------------------------------------------|
B|------------------------------------------------------|
G|16-16-16-16-16-16-14-14-11-11-11-11-11-11-------11-11-|
D|------------------------------------------14-14-------|
A|------------------------------------------------------|
E|------------------------------------------------------|


e|-------------------------------------------------------------------------|
B|-------------------------------------------------------------------------|
G|---------------------------------7-7-7-7-7-7-7-7---------9-9-9-9-9-9-9-9-|
D|-9-9-9-9-9-9-9-9-9-9-9-9-7-7-9-9-----------------7-7-9-9-----------------|
A|-------------------------------------------------------------------------|
E|-------------------------------------------------------------------------|


If you wanna give me some feedback e-mail me, madbrad1989@hotmail.com
This is my first tab ever sobe nice

Enjoy everyone from >BRADLEY . E<