Arctic Monkeys - Fake Tales Of San Francisco Chords & Tabs

 

Fake Tales Of San Francisco Chords & Tabs

Arctic Monkeys Chords & Tabs

Version: 3 Type: Bass Tab

Fake Tales Of San Francisco Bass Tab

   
-------------------------------------------------------------------------------
Fake Tales of San Francisco  Arctic Monkeys
-------------------------------------------------------------------------------

Tabbed By: El Jimbo  

Tuning: Standard

G|----------------------------------------------2------------|
D|---0---0-2-0----0---0-2-0---0---0-2-0---0-2-4---2-0--------|
A|-2---2--------2---2-------2---2-------2--------------------| x5
E|-----------------------------------------------------------|

G|-------------------|
D|-------------------|
A|------0-2----------| x3
E|--0-2--------------|

G|----------------------------------------------2------------|
D|---0---0-2-0----0---0-2-0---0---0-2-0---0-2-4---2-0--------|
A|-2---2--------2---2-------2---2-------2--------------------| x4
E|-----------------------------------------------------------|

G|-------------------|
D|-------------------|
A|------0-2----------| x3
E|--0-2--------------|
[ Tab from: https://www.guitartabs.cc/tabs/a/arctic_monkeys/fake_tales_of_san_francisco_btab_ver_3.html ]
G|--------------------------------------------------4-4-2-2-----2-2-----|
D|----------------------------------------------------------4-4---------|
A|-2-2-2-2-2-2-2-2-2-2-2-2-2-2-2-2--------------------------------------|
E|---------------------------------3-3-3-3-3-3-3-3----------------------|

G|-----------------4-4-2-2-----2-2---------------------------------|
D|-2-2-2-2-2-2-2-2---------4-4-------------------------------------|
A|---------------------------------2-2-2-2-2-2-2-2-2-2-2-2-3-4-5---|x2
E|-----------------------------------------------------------------|

G|--------------------------------------------------4-4-2-2-----2-2-----|
D|----------------------------------------------------------4-4---------|
A|-2-2-2-2-2-2-2-2-2-2-2-2-2-2-2-2--------------------------------------|
E|---------------------------------3-3-3-3-3-3-3-3----------------------|

G|-----------------4-4-2-2-----2-2---------------------------------|
D|-2-2-2-2-2-2-2-2---------4-4-------------------------------------|
A|---------------------------------2-2-2-2-2-2-2-2-2-2-2-2-2-2-2---|x2
E|-----------------------------------------------------------------|

G|--------------------------------------|
D|---0------0------0------0-------------|
A|-2---2--2---2--2---2--2---2-2-2-------|	
E|--------------------------------------|

| /  slide up
| \  slide down
| h  hammer-on
| p  pull-off
| ~  vibrato
| +  harmonic
| x  Mute note
===============================================================================