Arch Enemy - My Apocalypse Chords & Tabs

 

My Apocalypse Chords & Tabs

Arch Enemy Chords & Tabs

Version: 3 Type: Tab

My Apocalypse Tab

   
#----------------------------------PLEASE NOTE---------------------------------#
#This file is the author's own work and represents their interpretation of the #
#song. You may only use this file for private study, scholarship, or research. #
#------------------------------------------------------------------------------#

MY APOCALYPSE
As recorded by Arch Enemy
(From the 2005 Album DOOMSDAY MACHINE)

Transcribed by SoggieMufin
	

Words by Angela Gossow Music by Michael Amott, Daniel Erlandsson, Christopher Amott.

Gtr I (C F Bb Eb G C) - 'Untitled'
Gtr II (C F Bb Eb G C) - 'Untitled'
Gtr III (C F Bb Eb G C) - 'Synth'
Gtr IV (C F Bb Eb G C) - 'Untitled'
Gtr V (C F Bb Eb G C) - 'Clean'
Gtr VI (C F Bb Eb G C) - 'Untitled'

   Intro
    Q=120
    N.C.
   4/4
    Gtr I
     PM-|                       PM-|
     S   S  E   Q  E   E E E    S   S  E   Q  E   E   E E
||---------------------------|----------------------------|
||o--------------------------|----------------------------|
||---------------------------|----------------------------|
||---------------------------|----------------------------|
||o-(7)-(7)-7b8-7--7b8-7-5-7-|-(7)-(7)-7b8-7--7b8-7-/10-7-|
||---0---0--0---0--0---0-0-0-|--0---0--0---0--0---0-------|


  1.
                                     (Bb)               Bb
   PM-|                       PM-|      PM-|      PM-|      PM-|
   S   S  E   Q  E   E E E    S   S  E  S   S  E  S   S  E  S   S  E
|--------------------------|------------------------------------------||
|--------------------------|-----------------------------------------o||
|--------------------------|------------------------------------------||
|--------------------------|------------------------------------------||
|-(7)-(7)-7b8-7--7b8-7-5-7-|-(7)-(7)-7-(7)-(7)-7-(7)-(7)-5-(7)-(7)-5-o||
|--0---0--0---0--0---0-0-0-|--0---0--6--0---0--6--0---0--6--0---0--6--||


  2.
   PM-|                       PM-|      PM-|      PM-|
   S   S  E   Q  E   E E E    S   S  E  S   S  E  S   S  E Q
|--------------------------|----------------------------------|
|--------------------------|----------------------------------|
|--------------------------|----------------------------------|
|--------------------------|----------------------------------|
|-(7)-(7)-7b8-7--7b8-7-5-7-|-(7)-(7)-7-(7)-(7)-7-(7)-(7)-5----|
|--0---0--0---0--0---0-0-0-|--0---0--6--0---0--6--0---0--6----|


   Chorus
    $
    N.C.
    Gtr III
     Q          H        Q      W
||---------------------------|----------------------------|
||o--------------------------|----------------------------|
||--------------9------------|----------------------------|
||---------------------------|----------------------------|
||o-------------7------------|----------------------------|
||---------------------------|----------------------------|
|
|   Gtrs I, II
|    PM-|                       PM-|
|    S   S  E   Q  E   E E E    S   S  E   Q  E   E   E E
||---------------------------|----------------------------|
||o--------------------------|----------------------------|
||---------------------------|----------------------------|
||---------------------------|----------------------------|
||o-(7)-(7)-7b8-7--7b8-7-5-7-|-(7)-(7)-7b8-7--7b8-7-/10-7-|
||---0---0--0---0--0---0-0-0-|--0---0--0---0--0---0-------|


                                                            To Coda
                                     (Bb)               Bb
  Gtrs I, II
   PM-|                       PM-|      PM-|      PM-|      PM-|
   S   S  E   Q  E   E E E    S   S  E  S   S  E  S   S  E  S   S  E
|--------------------------|------------------------------------------||
|--------------------------|-----------------------------------------o||
|--------------------------|------------------------------------------||
|--------------------------|------------------------------------------||
|-(7)-(7)-7b8-7--7b8-7-5-7-|-(7)-(7)-7-(7)-(7)-7-(7)-(7)-5-(7)-(7)-5-o||
|--0---0--0---0--0---0-0-0-|--0---0--6--0---0--6--0---0--6--0---0--6--||


 Verse I
  F#5   N.C.
  Gtrs I, II
  q  q  S S S S +S  S E   +E    +E     Q  S S S S +S  S E
|-----------------------|---------------------------------|
|-----------------------|---------------------------------|
|-----------------------|---------------------------------|
|----4--------4-(4)-4---|--------------4--------4-(4)-4---|
|-4---------------------|---------------------------------|
|-2-----2-2-2---------1-|-(1)b2-(1)pb2----2-2-2---------2-|


  +Q   Q  S S S S +S  S E
|-------------------------|
|-------------------------|
|-------------------------|
|------4--------4-(4)-4---|
|-------------------------|
|-(2)-----2-2-2---------2-|


  Gtr I
  +Q   Q  S S S S +S  S E
|-------------------------|
|-------------------------|
|-------------------------|
|------4--------4-(4)-4---|
|-------------------------|
|-(2)-----2-2-2---------1-|
|
| Gtr II
| +Q   Q  S S S S +S  S E
|-------------------------|
|-------------------------|
|-------------------------|
|------4--------4-(4)-4---|
|-------------------------|
|-(2)-----2-2-2---------1-|


                              Cm
  +E    +E     Q  S S S S S S E   Q  q  S S S S S S E
|-------------------------------|---------------------|
|-------------------------------|---------------------|
|-----------------------------8-|----8--8-8-8-8-8-8-8-|
|--------------4--------4-4-4---|---------------------|
|-----------------------------6-|----6--6-6-6-6-6-6-6-|
|-(1)b2-(1)pb2----2-2-2---------|---------------------|
|
| +E    +E     Q  S S S S S S E   Q  q  S S S S S S E
|-------------------------------|---------------------|
|-------------------------------|---------------------|
|-----------------------------5-|----5--5-5-5-5-5-5-5-|
|--------------4--------4-4-4---|---------------------|
|-----------------------------3-|----3--3-3-3-3-3-3-3-|
|-(1)b2-(1)pb2----2-2-2---------|---------------------|


        Csus4             Cm
  Q  q   S  S  S  S  S  S E   Q  q  S S S S S S E
|---------------------------|---------------------|
|---------------------------|---------------------|
|----8--10-10-10-10-10-10-8-|----8--8-8-8-8-8-8-8-|
|---------------------------|---------------------|
|----6---8--8--8--8--8--8-6-|----6--6-6-6-6-6-6-6-|
|---------------------------|---------------------|
|
| Q  q   S  S  S  S  S  S E   Q  q  S S S S S S E
|---------------------------|---------------------|
|---------------------------|---------------------|
|----5---5--5--5--5--5--5-5-|----5--5-5-5-5-5-5-5-|
|---------------------------|---------------------|
|----3---3--3--3--3--3--3-3-|----3--3-3-3-3-3-3-3-|
|---------------------------|---------------------|


        Csus4                N.C.
         |------6-------|
  Q  q   S  S  S  S  S  S  E E
|------------------------------|
|------------------------------|
|----8--10-10-10-10-10-10-10---|
|------------------------------|
|----6---8--8--8--8--8--8--8---|
|----------------------------1-|
|
|        |------6-------|
| Q  q   S  S  S  S  S  S  E E
|------------------------------|
|------------------------------|
|----5---5--5--5--5--5--5--5---|
|------------------------------|
|----3---3--3--3--3--3--3--3---|
|----------------------------1-|


  Gtrs I, II
  +E    +E     Q  S S S S +S  S E
|---------------------------------|
|---------------------------------|
|---------------------------------|
|--------------4--------4-(4)-4---|
|---------------------------------|
|-(1)b2-(1)pb2----2-2-2---------2-|


  +Q   Q  S S S S +S  S E   +Q   Q  S S S S +S  S E
|-------------------------|-------------------------|
|-------------------------|-------------------------|
|-------------------------|-------------------------|
|------4--------4-(4)-4---|------4--------4-(4)-4---|
|-------------------------|-------------------------|
|-(2)-----2-2-2---------2-|-(2)-----2-2-2---------1-|


                              Cm
  Gtr I
  +E    +E     Q  S S S S S S E
|-------------------------------|
|-------------------------------|
|-----------------------------8-|
|--------------4--------4-4-4---|
|-----------------------------6-|
|-(1)b2-(1)pb2----2-2-2---------|
|
| Gtr II
| +E    +E     Q  S S S S S S E
|-------------------------------|
|-------------------------------|
|-----------------------------5-|
|--------------4--------4-4-4---|
|-----------------------------3-|
|-(1)b2-(1)pb2----2-2-2---------|


                              Csus4             Cm
  Q  q  S S S S S S E   Q  q   S  S  S  S  S  S E
|---------------------|---------------------------|
|---------------------|---------------------------|
|----8--8-8-8-8-8-8-8-|----8--10-10-10-10-10-10-8-|
|---------------------|---------------------------|
|----6--6-6-6-6-6-6-6-|----6---8--8--8--8--8--8-6-|
|---------------------|---------------------------|
|
| Q  q  S S S S S S E   Q  q   S  S  S  S  S  S E
|---------------------|---------------------------|
|---------------------|---------------------------|
|----5--5-5-5-5-5-5-5-|----5---5--5--5--5--5--5-5-|
|---------------------|---------------------------|
|----3--3-3-3-3-3-3-3-|----3---3--3--3--3--3--3-3-|
|---------------------|---------------------------|


                                D.S. al Coda
     Cm                       Csus4
  Q  q  S S S S S S E   Q  q   S  S  S  S Q
|---------------------|----------------------|
|---------------------|----------------------|
|----8--8-8-8-8-8-8-8-|----8--10-10-10-10----|
|---------------------|----------------------|
|----6--6-6-6-6-6-6-6-|----6---8--8--8--8----|
|---------------------|----------------------|
|
| Q  q  S S S S S S E   Q  q   S  S  S  S Q
|---------------------|----------------------|
|---------------------|----------------------|
|----5--5-5-5-5-5-5-5-|----5---5--5--5--5----|
|---------------------|----------------------|
|----3--3-3-3-3-3-3-3-|----3---3--3--3--3----|
|---------------------|----------------------|


 Verse II
  &
  N.C.
  Gtrs I, II
  E   +E     Q  S S S S +S  S E   +Q   Q  S S S S +S  S E
|-------------------------------|-------------------------|
|-------------------------------|-------------------------|
|-------------------------------|-------------------------|
|------------4--------4-(4)-4---|------4--------4-(4)-4---|
|-------------------------------|-------------------------|
|-1b2-(1)pb2----2-2-2---------2-|-(2)-----2-2-2---------2-|


  Gtr I
  +Q   Q  S S S S +S  S E
|-------------------------|
|-------------------------|
|-------------------------|
|------4--------4-(4)-4---|
|-------------------------|
|-(2)-----2-2-2---------1-|
|
| Gtr II
| +Q   Q  S S S S +S  S E
|-------------------------|
|-------------------------|
|-------------------------|
|------4--------4-(4)-4---|
|-------------------------|
|-(2)-----2-2-2---------1-|


                              Cm
  +E    +E     Q  S S S S S S E   Q  q  S S S S S S E
|-------------------------------|---------------------|
|-------------------------------|---------------------|
|-----------------------------8-|----8--8-8-8-8-8-8-8-|
|--------------4--------4-4-4---|---------------------|
|-----------------------------6-|----6--6-6-6-6-6-6-6-|
|-(1)b2-(1)pb2----2-2-2---------|---------------------|
|
| +E    +E     Q  S S S S S S E   Q  q  S S S S S S E
|-------------------------------|---------------------|
|-------------------------------|---------------------|
|-----------------------------5-|----5--5-5-5-5-5-5-5-|
|--------------4--------4-4-4---|---------------------|
|-----------------------------3-|----3--3-3-3-3-3-3-3-|
|-(1)b2-(1)pb2----2-2-2---------|---------------------|


        Csus4             Cm
  Q  q   S  S  S  S  S  S E   Q  q  S S S S S S E
|---------------------------|---------------------|
|---------------------------|---------------------|
|----8--10-10-10-10-10-10-8-|----8--8-8-8-8-8-8-8-|
|---------------------------|---------------------|
|----6---8--8--8--8--8--8-6-|----6--6-6-6-6-6-6-6-|
|---------------------------|---------------------|
|
| Q  q   S  S  S  S  S  S E   Q  q  S S S S S S E
|---------------------------|---------------------|
|---------------------------|---------------------|
|----5---5--5--5--5--5--5-5-|----5--5-5-5-5-5-5-5-|
|---------------------------|---------------------|
|----3---3--3--3--3--3--3-3-|----3--3-3-3-3-3-3-3-|
|---------------------------|---------------------|


        Csus4                N.C.
         |------6-------|
  Q  q   S  S  S  S  S  S  E E
|------------------------------|
|------------------------------|
|----8--10-10-10-10-10-10-10---|
|------------------------------|
|----6---8--8--8--8--8--8--8---|
|----------------------------1-|
|
|        |------6-------|
| Q  q   S  S  S  S  S  S  E E
|------------------------------|
|------------------------------|
|----5---5--5--5--5--5--5--5---|
|------------------------------|
|----3---3--3--3--3--3--3--3---|
|----------------------------1-|


  N.C.
  Gtrs I, II
  +E    +E     Q  S S S S +S  S E
|---------------------------------|
|---------------------------------|
|---------------------------------|
|--------------4--------4-(4)-4---|
|---------------------------------|
|-(1)b2-(1)pb2----2-2-2---------2-|


  +Q   Q  S S S S +S  S E   +Q   Q  S S S S +S  S E
|-------------------------|-------------------------|
|-------------------------|-------------------------|
|-------------------------|-------------------------|
|------4--------4-(4)-4---|------4--------4-(4)-4---|
|-------------------------|-------------------------|
|-(2)-----2-2-2---------2-|-(2)-----2-2-2---------1-|


                              Cm
  Gtr I
  +E    +E     Q  S S S S S S E
|-------------------------------|
|-------------------------------|
|-----------------------------8-|
|--------------4--------4-4-4---|
|-----------------------------6-|
|-(1)b2-(1)pb2----2-2-2---------|
|
| Gtr II
| +E    +E     Q  S S S S S S E
|-------------------------------|
|-------------------------------|
|-----------------------------5-|
|--------------4--------4-4-4---|
|-----------------------------3-|
|-(1)b2-(1)pb2----2-2-2---------|


                              Csus4             Cm
  Q  q  S S S S S S E   Q  q   S  S  S  S  S  S E
|---------------------|---------------------------|
|---------------------|---------------------------|
|----8--8-8-8-8-8-8-8-|----8--10-10-10-10-10-10-8-|
|---------------------|---------------------------|
|----6--6-6-6-6-6-6-6-|----6---8--8--8--8--8--8-6-|
|---------------------|---------------------------|
|
| Q  q  S S S S S S E   Q  q   S  S  S  S  S  S E
|---------------------|---------------------------|
|---------------------|---------------------------|
|----5--5-5-5-5-5-5-5-|----5---5--5--5--5--5--5-5-|
|---------------------|---------------------------|
|----3--3-3-3-3-3-3-3-|----3---3--3--3--3--3--3-3-|
|---------------------|---------------------------|


     Cm                       Csus4
  Q  q  S S S S S S E   Q  q   S  S  S  S Q
|---------------------|----------------------|
|---------------------|----------------------|
|----8--8-8-8-8-8-8-8-|----8--10-10-10-10----|
|---------------------|----------------------|
|----6--6-6-6-6-6-6-6-|----6---8--8--8--8----|
|---------------------|----------------------|
|
| Q  q  S S S S S S E   Q  q   S  S  S  S Q
|---------------------|----------------------|
|---------------------|----------------------|
|----5--5-5-5-5-5-5-5-|----5---5--5--5--5----|
|---------------------|----------------------|
|----3--3-3-3-3-3-3-3-|----3---3--3--3--3----|
|---------------------|----------------------|


   Chorus
    N.C.
    Gtr III
     Q          H        Q      W
||---------------------------|----------------------------|
||o--------------------------|----------------------------|
||--------------9------------|----------------------------|
||---------------------------|----------------------------|
||o-------------7------------|----------------------------|
||---------------------------|----------------------------|
|
|   Gtrs I, II
|    PM-|                       PM-|
|    S   S  E   Q  E   E E E    S   S  E   Q  E   E   E E
||---------------------------|----------------------------|
||o--------------------------|----------------------------|
||---------------------------|----------------------------|
||---------------------------|----------------------------|
||o-(7)-(7)-7b8-7--7b8-7-5-7-|-(7)-(7)-7b8-7--7b8-7-/10-7-|
||---0---0--0---0--0---0-0-0-|--0---0--0---0--0---0-------|


                                     (Bb)               Bb
  Gtrs I, II
   PM-|                       PM-|      PM-|      PM-|      PM-|
   S   S  E   Q  E   E E E    S   S  E  S   S  E  S   S  E  S   S  E  4x
|--------------------------|------------------------------------------||
|--------------------------|-----------------------------------------o||
|--------------------------|------------------------------------------||
|--------------------------|------------------------------------------||
|-(7)-(7)-7b8-7--7b8-7-5-7-|-(7)-(7)-7-(7)-(7)-7-(7)-(7)-5-(7)-(7)-5-o||
|--0---0--0---0--0---0-0-0-|--0---0--6--0---0--6--0---0--6--0---0--6--||


 Interlude
  E5                Bm                        (Em)    EmBm
  Gtr IV
  H..         S S   E E +E  S S E E +E  S S   H.      E E   +W
|-------------x-x-|-7-7-(7)-x-x-7-7-(7)-x-x-|---------7-7-|-(7)----|
|-------------x-x-|-7-7-(7)-x-x-7-7-(7)-x-x-|---------8-7-|-(7)----|
|-------------x-x-|-7-7-(7)-x-x-7-7-(7)-x-x-|---------9-7-|-(7)----|
|-----------------|-------------------------|-------------|--------|
|-----------------|-------------------------|-------------|--------|
|-----------------|-------------------------|-0-----------|--------|
|
| Gtrs I, II
| q    H.           W                         W              W
|-----------------|-------------------------|-------------|--------|
|-----------------|-------------------------|-------------|--------|
|-----------------|-------------------------|-------------|--------|
|-9---------------|-------------------------|-------------|--------|
|-7---------------|-------------------------|-------------|--------|
|-0---------------|-------------------------|-------------|--------|


  (Em)            Bm          Bm            (Em)    EmBm
  H..       S S   E E +E  S S E E +E  S S   H.      E E   +H       H
|-----------x-x-|-7-7-(7)-x-x-7-7-(7)-x-x-|---------7-7-|-(7)----^<7>----|
|-----------x-x-|-7-7-(7)-x-x-7-7-(7)-x-x-|---------8-7-|-(7)----^<7>----|
|-----------x-x-|-7-7-(7)-x-x-7-7-(7)-x-x-|---------9-7-|-(7)----^<7>----|
|---------------|-------------------------|-------------|----------------|
|---------------|-------------------------|-------------|----------------|
|-0-------------|-------------------------|-0-----------|----------------|


    Em     D        C      D          (Em)             (D)
    Gtr V
    E E Q  E E Q    E E Q  E E Q   4x E   E    E    E   E   E   Q
||----------------|----------------||-------------<12>--------------|
||o-----8------7--|-----5------7--o||--------<12>------<7>----------|
||----------------|----------------||---<12>---------------<7>------|
||----9------7----|---5------7-----||--------------------------<7>--|
||o-7------5------|-3------5------o||-------------------------------|
||----------------|----------------||-------------------------------|


        (Em)           (D)                    (Em)           (D)
   +E     E    E    E   E   E   Q        +E     E    E    E   E   E   Q
|-----------------<12>--------------||------------------<12>--------------|
|------------<12>------<7>----------||o------------<12>------<7>----------|
|-------<12>---------------<7>------||--------<12>---------------<7>------|
|-(<7>)------------------------<7>--||--(<7>)------------------------<7>--|
|-----------------------------------||o-----------------------------------|
|-----------------------------------||------------------------------------|


        (Em)           (D)
   +E     E    E    E   E   E   Q    3x
|-----------------<12>---------------||
|------------<12>------<7>----------o||
|-------<12>---------------<7>-------||
|-(<7>)------------------------<7>---||
|-----------------------------------o||
|------------------------------------||


 Lead - Michael Amott
  Em           D               C             D
  Gtr I
    E  E  E  E  +E   E  E  E    +E   E  E  E  +E   E  E  E
|-/19-17-15-17-(17)-15-14-15-|-(15)-14----14-(14)-------------|
|----------------------------|---------17---------17-15-------|
|----------------------------|--------------------------14b16-|
|----------------------------|--------------------------------|
|----------------------------|--------------------------------|
|----------------------------|--------------------------------|
|
| Gtr II
|   W                            W
|----------------------------|--------------------------------|
|----------------------------|--------------------------------|
|----------------------------|--------------------------------|
|----------------------------|--------------------------------|
|----------------------------|--------------------------------|
|----------------------------|--------------------------------|
|
| Gtr V
|   E  E  Q      E   E  Q        E   E  Q      E   E  Q
|----------------------------|--------------------------------|
|---------8-------------7----|----------5-------------7-------|
|----------------------------|--------------------------------|
|------9-------------7-------|-------5-------------7----------|
|---7------------5-----------|---3-------------5--------------|
|----------------------------|--------------------------------|

[ Tab from: https://www.guitartabs.cc/tabs/a/arch_enemy/my_apocalypse_tab_ver_3.html ]
  Em         D             C             D
   +W                       +W
|------------------------|-----------------------|
|------------------------|-----------------------|
|-(14)-------------------|-(14)pb16--------------|
|------------------------|-----------------------|
|------------------------|-----------------------|
|------------------------|-----------------------|
|
|   H..             E       +H            H
|------------------------|-----------------------|
|------------------15b17-|-(15)pb17------15------|
|------------------------|-----------------------|
|------------------------|-----------------------|
|------------------------|-----------------------|
|------------------------|-----------------------|
|
|   E   E Q  E E Q           E      E Q   E E Q
|------------------------|-----------------------|
|---------8------7-------|------------5-------7--|
|------------------------|-----------------------|
|-------9------7---------|----------5-------7----|
|---7--------5-----------|---3------------5------|
|------------------------|-----------------------|


  Em           D               C             D
    E  E  E  E  +E   E  E  E    +E   E  E  E  +E   E   Q
|-/19-17-15-17-(17)-15-14-15-|-(15)-14----14-(14)----/22--|
|----------------------------|---------17---------17------|
|----------------------------|----------------------------|
|----------------------------|----------------------------|
|----------------------------|----------------------------|
|----------------------------|----------------------------|
|
|   W                            W
|----------------------------|----------------------------|
|----------------------------|----------------------------|
|----------------------------|----------------------------|
|----------------------------|----------------------------|
|----------------------------|----------------------------|
|----------------------------|----------------------------|
|
|   E  E  Q      E   E  Q        E   E  Q      E   E   Q
|----------------------------|----------------------------|
|---------8-------------7----|----------5--------------7--|
|----------------------------|----------------------------|
|------9-------------7-------|-------5-------------7------|
|---7------------5-----------|---3-------------5----------|
|----------------------------|----------------------------|


  Em      D        C             D
   W                Q       E  E  E  +E       +Q
|-19-------------|-22b24---22-20-19-(19)pb20r(19)--|
|----------------|---------------------------------|
|----------------|---------------------------------|
|----------------|---------------------------------|
|----------------|---------------------------------|
|----------------|---------------------------------|
|
|  W                W
|----------------|---------------------------------|
|----------------|---------------------------------|
|----------------|---------------------------------|
|----------------|---------------------------------|
|----------------|---------------------------------|
|----------------|---------------------------------|
|
|  E E Q  E E Q     E    E  Q     E   E        Q
|----------------|---------------------------------|
|------8------7--|----------5------------------7---|
|----------------|---------------------------------|
|----9------7----|-------5------------7------------|
|--7------5------|--3-------------5----------------|
|----------------|---------------------------------|


  Em                 D               C                   D
       |--3--|                             |--3--|
    E  S  S  S  E  E  +E   E  E  E    +E   S  S  S  E  E  +E   E  Q
|-/19-17h19p17-15-17-(17)-15-14-15-|-(15)-14h15p14----14-(14)--------|
|----------------------------------|---------------17---------17-15--|
|----------------------------------|---------------------------------|
|----------------------------------|---------------------------------|
|----------------------------------|---------------------------------|
|----------------------------------|---------------------------------|
|
|      |--3--|                             |--3--|
|   E  S  S  S  E  E  +E   E  E  E    +E   S  S  S  E  E  +E   E  Q
|-/15-14h15p14----14-(14)----------|---------------------------------|
|--------------17---------17-15-17-|-(17)-15h17p15----15-(15)--------|
|----------------------------------|---------------16---------16-14--|
|----------------------------------|---------------------------------|
|----------------------------------|---------------------------------|
|----------------------------------|---------------------------------|
|
|   E  E        Q      E   E  Q        E   E        Q      E   E  Q
|----------------------------------|---------------------------------|
|---------------8-------------7----|----------------5-------------7--|
|----------------------------------|---------------------------------|
|------9-------------------7-------|-------5-------------------7-----|
|---7------------------5-----------|---3-------------------5---------|
|----------------------------------|---------------------------------|


  Em      D        C         D
   W                +W
|----------------|------------------|
|----------------|------------------|
|-16-------------|-(16)-------------|
|----------------|------------------|
|----------------|------------------|
|----------------|------------------|
|
|  W                +W
|----------------|------------------|
|----------------|------------------|
|-12-------------|-(12)-------------|
|----------------|------------------|
|----------------|------------------|
|----------------|------------------|
|
|  E E Q  E E Q      E  E Q  E E Q
|----------------|------------------|
|------8------7--|--------5------7--|
|----------------|------------------|
|----9------7----|------5------7----|
|--7------5------|---3-------5------|
|----------------|------------------|


  Em           D                     C             D
                     |--3--|
    E  E  E  E  +E   S  S  S  E  E    +E   E  E  E  +E   E  Q
|-/19-17-15-17-(17)-15h17p15-14-15-|-(15)-14----14-(14)--------|
|----------------------------------|---------17---------17-15--|
|----------------------------------|---------------------------|
|----------------------------------|---------------------------|
|----------------------------------|---------------------------|
|----------------------------------|---------------------------|
|
|                    |--3--|
|   E  E  E  E  +E   S  S  S  E  E    +E   E  E  E  +E   E  Q
|-/15-14----14-(14)----------------|---------------------------|
|--------17---------17h19p17-15-17-|-(17)-15----15-(15)--------|
|----------------------------------|---------16---------16-14--|
|----------------------------------|---------------------------|
|----------------------------------|---------------------------|
|----------------------------------|---------------------------|
|
|   E  E  Q      E   E        Q        E   E  Q      E   E  Q
|----------------------------------|---------------------------|
|---------8-------------------7----|----------5-------------7--|
|----------------------------------|---------------------------|
|------9-------------7-------------|-------5-------------7-----|
|---7------------5-----------------|---3-------------5---------|
|----------------------------------|---------------------------|


  Em         D        C             D
   W                   +W
|-22b24-------------|-(22)pb24---------------|
|-------------------|------------------------|
|-------------------|------------------------|
|-------------------|------------------------|
|-------------------|------------------------|
|-------------------|------------------------|
|
|  W                   +W
|-17b19-------------|-(17)pb19---------------|
|-------------------|------------------------|
|-------------------|------------------------|
|-------------------|------------------------|
|-------------------|------------------------|
|-------------------|------------------------|
|
|  E    E Q  E E Q      E      E Q  E E Q
|-------------------|------------------------|
|---------8------7--|------------5------7----|
|-------------------|------------------------|
|-------9------7----|----------5------7------|
|--7---------5------|---3-----------5--------|
|-------------------|------------------------|


 Bridge
  E5        G5Am           BmC              D5Em           G5F#F5E5
  Gtr VI
  H     E E E E   +H.      E E   +H     E E E E   +E  E Q  H
|---------------|--------------|----------------|------------------|
|---------------|--------------|----------------|------------------|
|---------------|--------------|----------------|------------------|
|-------5-4-----|--------------|--------5-4---5-|-(5)-4------------|
|-----------5-3-|-(3)------5-7-|-(7)--------7---|-------7----------|
|---------------|--------------|----------------|------------------|
|
| Gtr II
|                                                          PM--|
| H.        E E   +H.      E E   +H.        E E   +H       E E E E
|---------------|--------------|----------------|------------------|
|---------------|--------------|----------------|------------------|
|---------------|--------------|----------------|------------------|
|---------------|----------4-5-|-(5)--------7-9-|-(9)--------------|
|-2---------5-7-|-(7)------2-3-|-(3)--------5-7-|-(7)------5-4-3-2-|
|-0---------3-5-|-(5)----------|----------------|----------3-2-1-0-|


             G5Am           BmC              D5E5             G#G5F#F5
   H     E E E E   +H.      E E   +H     E E E E   +E  S S Q  H
|----------------|--------------|----------------|--------------------|
|----------------|--------------|----------------|--------------------|
|----------------|--------------|----------------|--------------------|
|--------5-4-----|--------------|--------5-4---7-|-(7)-5-4------------|
|------------5-3-|-(3)------5-7-|-(7)--------7---|---------7----------|
|----------------|--------------|----------------|--------------------|
|
|                                                             PM----|
| +H.        E E   +H.      E E   +H.        E E   +H         E E E E
|----------------|--------------|----------------|--------------------|
|----------------|--------------|----------------|--------------------|
|----------------|--------------|----------------|--------------------|
|----------------|----------4-5-|-(5)--------7-9-|-(9)----------------|
|-(2)--------5-7-|-(7)------2-3-|-(3)--------5-7-|-(7)--------6-5-4-3-|
|-(0)--------3-5-|-(5)----------|----------------|------------4-3-2-1-|


 Lead - C. Amott
  E5          G5 A5             B5 C5
  Gtr VI
  H      E  E  E  E    +H.       E  E
|-------------------|-----------------|
|-------12-10--7----|------------7--8-|
|-----------------9-|--(9)------------|
|-------------------|-----------------|
|-------------------|-----------------|
|-------------------|-----------------|
|
| Gtr II
| H      E  E  E  E    +H.       E  E
|-------------------|-----------------|
|-------------------|-----------------|
|-------12-11-------|-----------------|
|-------------12-10-|-(10)------12-14-|
|-------------------|-----------------|
|-------------------|-----------------|
|
| Gtr I
| H.           E  E    +H.       E  E
|-------------------|-----------------|
|-------------------|-----------------|
|-------------------|-----------------|
|-------------------|------------4--5-|
|-2------------5--7-|--(7)-------2--3-|
|-0------------3--5-|--(5)------------|


                D5 E5               G5F#F5E5
   +H      E  E  E  E    +E   E  Q  H
|---------------------|---------------------|
|--(8)----12-10--8-12-|-(12)-10--8----------|
|---------------------|---------------------|
|---------------------|---------------------|
|---------------------|---------------------|
|---------------------|---------------------|
|
|  +H      E  E  E  E    +E   E  Q  H
|---------------------|---------------------|
|---------------------|---------------------|
|---------12-11----12-|-(12)-11-------------|
|-(14)----------14----|---------14----------|
|---------------------|---------------------|
|---------------------|---------------------|
|
|                                   PM--|
|  +H.           E  E    +H         E E E E
|---------------------|---------------------|
|---------------------|---------------------|
|---------------------|---------------------|
|--(5)-----------7--9-|--(9)----------------|
|--(3)-----------5--7-|--(7)--------5-4-3-2-|
|---------------------|-------------3-2-1-0-|


               G5 A5             B5 C5
   H      E  E  E  E    +H.       E  E
|--------19-17-------|--------------15-|
|--------------19-17-|-(17)------19----|
|--------------------|-----------------|
|--------------------|-----------------|
|--------------------|-----------------|
|--------------------|-----------------|
|
|  H      E  E  E  E    +H.       E  E
|--------15-14-------|-----------------|
|--------------15-13-|-(13)------15-17-|
|--------------------|-----------------|
|--------------------|-----------------|
|--------------------|-----------------|
|--------------------|-----------------|
|
| +H.           E  E    +H.       E  E
|--------------------|-----------------|
|--------------------|-----------------|
|--------------------|-----------------|
|--------------------|------------4--5-|
|-(2)-----------5--7-|--(7)-------2--3-|
|-(0)-----------3--5-|--(5)------------|


                D5   E5                G#5G5F#F5
           |---3---|
   +H      Q  Q    Q      Q.      S  S  H
|-(15)----19-17---15---|-19b20---19-17-15---------|
|----------------------|--------------------------|
|----------------------|--------------------------|
|----------------------|--------------------------|
|----------------------|--------------------------|
|----------------------|--------------------------|
|
|          |---3---|
|  +H      Q  Q    Q      Q.      S  S  H
|---------15-14--------|-15b17---15-14------------|
|-(17)------------17---|---------------17---------|
|----------------------|--------------------------|
|----------------------|--------------------------|
|----------------------|--------------------------|
|----------------------|--------------------------|
|
|                                       PM----|
|  +H.          E    E   +H             E E E E
|----------------------|--------------------------|
|----------------------|--------------------------|
|----------------------|--------------------------|
|--(5)----------7----9-|-(9)----------------------|
|--(3)----------5----7-|-(7)------------6-5-4-3---|
|----------------------|----------------4-3-2-1---|


  E    (Em)                     N.C.
   +W            +Q    +q    H
|-(15)--------|-(15)--(15)\-----------|
|-------------|-----------------------|
|-------------|-----------------------|
|-------------|-----------------------|
|-------------|-----------------------|
|-------------|-----------------------|
|
|  +W            +Q    +q    H
|-------------|-----------------------|
|-(17)--------|-(17)--(17)\-----------|
|-------------|-----------------------|
|-------------|-----------------------|
|-------------|-----------------------|
|-------------|-----------------------|
|
|   W            +H.              Q
|-------------|-----------------------|
|-------------|-----------------------|
|-------------|-----------------------|
|---2---------|--(2)------------------|
|---2---------|--(2)------------------|
|---0---------|--(0)------------/13\--|


   Intro Revisited
    N.C.
    Gtr III
     Q          H        Q      W
||---------------------------|----------------------------|
||o--------------------------|----------------------------|
||--------------9------------|----------------------------|
||---------------------------|----------------------------|
||o-------------7------------|----------------------------|
||---------------------------|----------------------------|
|
|   Gtr I
|    PM-|                       PM-|
|    S   S  E   Q  E   E E E    S   S  E   Q  E   E   E E
||---------------------------|----------------------------|
||o--------------------------|----------------------------|
||---------------------------|----------------------------|
||---------------------------|----------------------------|
||o-(7)-(7)-7b8-7--7b8-7-5-7-|-(7)-(7)-7b8-7--7b8-7-/10-7-|
||---0---0--0---0--0---0-0-0-|--0---0--0---0--0---0-------|


  1.
                                     Bb                 Bb
  Gtr I
   PM-|                       PM-|      PM-|      PM-|      PM-|
   S   S  E   Q  E   E E E    S   S  E  S   S  E  S   S  E  S   S  E
|--------------------------|------------------------------------------||
|--------------------------|-----------------------------------------o||
|--------------------------|------------------------------------------||
|--------------------------|------------------------------------------||
|-(7)-(7)-7b8-7--7b8-7-5-7-|-(7)-(7)-7-(7)-(7)-7-(7)-(7)-5-(7)-(7)-5-o||
|--0---0--0---0--0---0-0-0-|--0---0--6--0---0--6--0---0--6--0---0--6--||


  2.
                                     Bb                 Bb
   PM-|                       PM-|      PM-|      PM-|
   S   S  E   Q  E   E E E    S   S  E  S   S  E  S   S  E Q
|--------------------------|----------------------------------|
|--------------------------|----------------------------------|
|--------------------------|----------------------------------|
|--------------------------|----------------------------------|
|-(7)-(7)-7b8-7--7b8-7-5-7-|-(7)-(7)-7-(7)-(7)-7-(7)-(7)-5----|
|--0---0--0---0--0---0-0-0-|--0---0--6--0---0--6--0---0--6----|


   Chorus
    N.C.
    Gtr III
     Q          H        Q      W
||---------------------------|----------------------------|
||o--------------------------|----------------------------|
||--------------9------------|----------------------------|
||---------------------------|----------------------------|
||o-------------7------------|----------------------------|
||---------------------------|----------------------------|
|
|   Gtrs I, II
|    PM-|                       PM-|
|    S   S  E   Q  E   E E E    S   S  E   Q  E   E   E E
||---------------------------|----------------------------|
||o--------------------------|----------------------------|
||---------------------------|----------------------------|
||---------------------------|----------------------------|
||o-(7)-(7)-7b8-7--7b8-7-5-7-|-(7)-(7)-7b8-7--7b8-7-/10-7-|
||---0---0--0---0--0---0-0-0-|--0---0--0---0--0---0-------|


                                     Bb                 Bb
  Gtrs I, II
   PM-|                       PM-|      PM-|      PM-|      PM-|
   S   S  E   Q  E   E E E    S   S  E  S   S  E  S   S  E  S   S  E  4x
|--------------------------|------------------------------------------||
|--------------------------|-----------------------------------------o||
|--------------------------|------------------------------------------||
|--------------------------|------------------------------------------||
|-(7)-(7)-7b8-7--7b8-7-5-7-|-(7)-(7)-7-(7)-(7)-7-(7)-(7)-5-(7)-(7)-5-o||
|--0---0--0---0--0---0-0-0-|--0---0--6--0---0--6--0---0--6--0---0--6--||


 Outro
          Bb                 Bb
   PM-|      PM-|      PM-|      PM-|
   S   S  E  S   S  E  S   S  E  S   S  E
|-----------------------------------------|
|-----------------------------------------|
|-----------------------------------------|
|-----------------------------------------|
|-(7)-(7)-7-(7)-(7)-7-(7)-(7)-5-(7)-(7)-5-|
|--0---0--6--0---0--6--0---0--6--0---0--6-|


          Bb                 Bb
   PM-|      PM-|      PM-|      PM-|
   S   S  E  S   S  E  S   S  E  S   S  E
|-----------------------------------------|
|-----------------------------------------|
|-----------------------------------------|
|-----------------------------------------|
|-(7)-(7)-7-(7)-(7)-7-(7)-(7)-5-(7)-(7)-5-|
|--0---0--6--0---0--6--0---0--6--0---0--6-|


          Bb                 Bb     N.C.
                                     Gtr III
                                     >
   PM-|      PM-|      PM-|
   S   S  E  S   S  E  S   S  E Q    W
|----------------------------------|------*|
|----------------------------------|------*|
|----------------------------------|-9----*|
|----------------------------------|------*|
|-(7)-(7)-7-(7)-(7)-7-(7)-(7)-5----|-7----*|
|--0---0--6--0---0--6--0---0--6----|------*|



Duration Legend
---------------
W - whole; H - half; Q - quarter; E - 8th; S - 16th; T - 32nd; X - 64th; a - acciaccatura
+ - note tied to previous; . - note dotted; .. - note double dotted
Uncapitalized letters represent notes that are staccato (1/2 duration)
Irregular groupings are notated above the duration line
Duration letters will always appear directly above the note/fret number it represents the
duration for.  Duration letters with no fret number below them represent rests.  Multi-
bar rests are notated in the form Wxn, where n is the number of bars to rest for.  Low
melody durations appear below the staff

Tablature Legend
----------------
 h   - hammer-on
 p   - pull-off
 b   - bend
 pb  - pre-bend
 r   - bend release (if no number after the r, then release immediately)
 /\  - slide into or out of (from/to "nowhere")
 s   - legato slide
 S   - shift slide
 - natural harmonic
[n]  - artificial harmonic
n(n) - tapped harmonic
 ~   - vibrato
 tr  - trill
 T   - tap
 TP  - trem. picking
 PM  - palm muting
\n/  - tremolo bar dip; n = amount to dip
 \n  - tremolo bar down
 n/  - tremolo bar up
/n\  - tremolo bar inverted dip
 =   - hold bend; also acts as connecting device for hammers/pulls
 <> - volume swell (louder/softer)
 x   - on rhythm slash represents muted slash
 o   - on rhythm slash represents single note slash

Misc Legend
-----------
 |  - bar
||  - double bar
||o - repeat start
o|| - repeat end
*|  - double bar (ending)
 :  - bar (freetime)
 $  - Segno
 &  - Coda
Tempo markers -  = BPM(8/16=s8/s16), where s8 = swing 8ths, s16 = swing 16ths