Antoine Dufour - Glimmer Of Hope Chords & Tabs

 

Glimmer Of Hope Chords & Tabs

Antoine Dufour Chords & Tabs

Version: 1 Type: Tab

Glimmer Of Hope Tab

   
-------------------------------------------------------------------------------
			     GLIMMER OF HOPE Ė Antoine Dufour
-------------------------------------------------------------------------------
Tabbed by: Frog Man
Email:
Capo on the third fret but leave the D# open

This tab is nowhere near complete but Iím working on it. Once you have all the parts it 
repeats all the way through.

Tuning: D#,A,D,G,B,e

E|--0---0-0h3p0------------------------------------5-5-5-----|
B|--0h2-2-------2---3----------------------3-5-3---------0-0-|
G|--0---0-------------------0------------0-----------5-------|
D|--0h2-2--------------0-h2---2p0-------4----------------0-0-|
A|--0---0---------3---------------3----5---------------------|
E|--------------------0--------------4-----------4---2---1-1-|x2
[ Tab from: https://www.guitartabs.cc/tabs/a/antoine_dufour/glimmer_of_hope_tab.html ]
E|-------------------------------------------------------8--7----7--5----3--3----3--3---|
B|----------------------------------------------------------------------3h5------3h5----|
G|------------------------0------------0-0h2--5-/9-------9--7----7--5-------------------|
D|------2-2h3--2--0-----0------------3-----------------+8-------------------------------|
A|----3---------------3-------3-4--3-----------------+8---------------------------------|
E|--0---------------4-------4----2-----------------0----------4-------2--------4--------|

Thatís it for the moment Iím afraid. Hopefully I can tab out the rest of it as some 
Until then, have fun with this. Itís a beautiful song and fun to play

| /  slide up
| \  slide down
| h  hammer-on
| p  pull-off
| ~  vibrato
| +  harmonic
| x  Mute note
===============================================================================