Anti-flag - New Millennium Generation Chords & Tabs

 

New Millennium Generation Chords & Tabs

Anti-flag Chords & Tabs

Version: 1 Type: Bass Tab

New Millennium Generation Bass Tab

Anti-Flag
The New Millennium Generation
By: Albert Associate

Nobody has tabbed this song out so I took the liberty to tab it out for those of you who
playing Anti-Flag songs. I think this is pretty much perfect but if there are some
then e-mail me at albert_garza_577@hotmail.com. And Iím sorry that it looks like a big 
and I didnít want to organize it but its all in order.

Gb|-------------------------------------------------|
Db|----55-44-------55-44-------55-44----------------|
Ab|-22-------55-55-------55----------55-77-55-44-55-|
Eb|-------------------------33----------------------|

Gb|-------------------------------------------------|
Db|----55-44-------55-44-------55-44----77-55-44----|
Ab|-22-------55-55-------55----------55----------77-|
Eb|-------------------------33----------------------|

Gb|----------------------------------------------------|
Db|----55-44-------------------55-44----7-5-4-55-4-----|
Ab|-22-------55-77-55-44-55-22-------55------------7-5-|
Eb|----------------------------------------------------|

Gb|---------------------------------------------|
Db|----55-44----------------555555-4-5-777777---|
Ab|-22-------55-77-55-44-55-------------------5-|
Eb|---------------------------------------------|

Gb|----------------------------------------------22-|
Db|----44-22----55-44-22----------55----55-44-22----|
Ab|-22-------55----------55----55----55-------------|
Eb|-------------------------33----------------------|

Gb|-------------------------------------------------|
Db|----44-22----55-44-22----------55----77-55-44----|
Ab|-22-------55----------55----55----55----------77-|
Eb|-------------------------33----------------------|

Gb|---------------------------------------------|
Db|----------------77-55------------------------|
Ab|----55-33----55-------77---9---7----55-33----| 2x
Eb|-33-------55-------------7---5---33-------55-|

Gb|-------------------------------------------------------------------|
Db|-------------55-33-------------------77-55----------------77777777-|
Ab|----55-33----------55-33----77-55----------77-55--------7----------|
Eb|-33-------55-------------55-------77-------------555555------------|

Gb|----------------------------------|
Db|----------------------------------|
Ab|-2222-0-2-4-555555----------------|
Eb|-------------------33333333333333-|

Gb|------------------------------------------|
Db|-------------------555555-4-5-77-55-4-5-4-|
Ab|-2222-0-2-4-555555------------------------|
Eb|------------------------------------------|

Gb|-------------------------------------|
Db|-------------------------------------|
Ab|-2222-0-2-4-555555-------------------|
Eb|-------------------333333-2-3-555555-|

Gb|---------------------------------------------------------------|
Db|----55-44-------77-55----------------55-33-------------------7-|
Ab|-22-------55----------77----55-33----------55-33----77-55------|
Eb|-------------55----------33-------55-------------55-------77---|

Gb|-------------------------------------------------|
Db|----55-44-------55-44-------55-44----------------|
Ab|-22-------55-55-------55----------55-77-55-44-55-|
Eb|-------------------------33----------------------|

Gb|---------------------------------------------|
Db|----55-44-------55-44----555555-4-5-777777---|
Ab|-22-------55-55-------55-------------------5-|
Eb|---------------------------------------------|
[ Tab from: https://www.guitartabs.cc/tabs/a/anti_flag/new_millennium_generation_btab.html ]
Gb|----------------------------------------------22-|
Db|----44-22----55-44-22----------55----55-44-22----|
Ab|-22-------55----------55----55----55-------------|
Eb|-------------------------33----------------------|

Gb|-------------------------------------------------|
Db|----44-22----55-44-22----------55----77-55-44----|
Ab|-22-------55----------55----55----55----------77-|
Eb|-------------------------33----------------------|

Gb|---------------------------------------------|
Db|----------------77-55------------------------|
Ab|----55-33----55-------77---9---7----55-33----| 2x
Eb|-33-------55-------------7---5---33-------55-|

Gb|------------------------------------------------------------|
Db|-------------55-33-------------------77-55----------------7-|
Ab|----55-33----------55-33----77-55----------77-55--------7---|
Eb|-33-------55-------------55-------77-------------555555-----|

Gb|----------------------------------|
Db|----------------------------------|
Ab|-2222-0-2-4-555555----------------|
Eb|-------------------33333333333333-|

Gb|--------------------------------------|
Db|-------------------555555-4-5-77777---|
Ab|-2222-0-2-4-555555------------------5-|
Eb|--------------------------------------|

Gb|-------------------------------------|
Db|-------------------------------------|
Ab|-2222-0-2-4-555555-------------------|
Eb|-------------------333333-2-3-555555-|

Gb|-------------------------------------------------------------------------|
Db|----55-44-------77-55----------------55-33-------------------77-55-------|
Ab|-22-------55----------77----55-33----------55-33----77-55----------77-55-|
Eb|-------------55----------33-------55-------------55-------77-------------|

Gb|-------------------------------------------------------------------------|
Db|----------------------------------------------------55---4-5-77-55-44----|
Ab|-22-0-2-4-5555555------------------22-0-2-4-5555555----5--------------77-|
Eb|------------------33-2-3-4-5555555---------------------------------------|

Gb|----------------------------------------------------------------------|
Db|----------------------------------------------------55---4-5-77777777-|
Ab|-22-0-2-4-5555555------------------22-0-2-4-5555555----5--------------|
Eb|------------------33-2-3-4-5555555------------------------------------|

Gb|--------------------------------------|
Db|--------------------------------------|
Ab|---------55----55-77------------------|
Eb|-3-3-222----55-------7777777777777777-|

Gb|-----------------------------------------|
Db|-----------------------------------------|
Ab|---------55----55-77--------99--------99-|
Eb|-3-3-222----55-------777777----777777----|

Gb|-----------|
Db|-----------|
Ab|---------5-|
Eb|-3-3-222---|

Gb|----------------------------------|
Db|----------------------------------|
Ab|-2222-0-2-4-555555----------------|
Eb|-------------------33333333333333-|

Gb|------------------------------------------|
Db|-------------------555555-4-5-77-55-4-5-4-|
Ab|-2222-0-2-4-555555------------------------|
Eb|------------------------------------------|

Gb|-------------------------------------|
Db|-------------------------------------|
Ab|-2222-0-2-4-555555-------------------|
Eb|-------------------333333-2-3-555555-|

Gb|-------------------------------------------------|
Db|----55-44-------77-55-------55-44----77-55-44----|
Ab|-22-------55----------77----------55----------77-| 2x
Eb|-------------55----------33----------------------|

Gb|---------------------------|
Db|----55-44-------77-55----5-|
Ab|-22-------55----------77---|
Eb|-------------55------------|