Anti-flag - Antithetic To The Cure Chords & Tabs

 

Antithetic To The Cure Chords & Tabs

Anti-flag Chords & Tabs

Version: 1 Type: Bass Tab

Antithetic To The Cure Bass Tab

Antithetic to the Cure
Anti-Flag
Not On an Album

You can download this song here (its off their site):

Song is played in regular Anti-Flag tuning- half a step down, use you common sense wen 
comes to the 10's and up looking like 1's and 0's, 1's and 1's, 1's and 2's, 3's, 4's, 
same with

Intro 4x 0:03-0:17
|--------------------------------------------------------------|
|--------------------------------------------------------------|
|-----1010----1010----1212----1010-1010-1010----1212----1010-|
|-1212----1212----1212----1212----88----88----1010----1010-----|

Verse 4x 0:18-0:32
|----------------------------------------------------|
|----------------------------------------------------|
|-----15151414121210101212101099-1010-10-12h14-12-10-|
|-1212--------------------------8----8---------------|
[ Tab from: https://www.guitartabs.cc/tabs/a/anti_flag/antithetic_to_the_cure_btab.html ]
Pre-Chorus(1) 2x 0:33-0:36
|------------------------|
|-----------99-----------|
|---99121299--121299-----|
|-77----------------1212-|

Chorus 2x 0:37-0:43
|--------------------------------|
|--------------------------------|
|--------12--10-8------12-10----|
|-0-0-10----8--------10-------10-|

Intro 2x 0:44-0:51

Verse 4x 0:51-1:05

Pre-chorus(2) 1:06-1:09
|-----------------------------------|
|-----------99--------------------9-|
|---99121299--121299------99121299--|
|-77----------------121277----------|

Chorus 4x 1:10-1:24

Intro 2x 1:25-1:32

Bridge(1) 1:33
|---------------|
|---------------|
|---------------|
|-0(let ring)---

Bridge(2) x4 1:40-1:48
|-----------------|
|-----------------|
|-----------------|
|-0000000000000000
	(crescendo)

Intro x3 1:49-1:59

Outro 2:00-2:04
|------------------------------------------------------|
|------------------------------------------------------|
|-------1010----1010----1212----1010-1010--1010-------|
|---1212----1212----1212----1212----88----88-----0-0-0-|

Contact Me--->antiflag194@att.net