Anthrax - Belly Of The Beast Chords & Tabs

 

Belly Of The Beast Chords & Tabs

Anthrax Chords & Tabs

Version: 1 Type: Bass Tab

Belly Of The Beast Bass Tab

   
Belly of the Beast  Anthrax
Standard Tuning: (E,A,D,G)
================================================================
Rest: (0:00)
Verse: (0:15)

G:-------------------------------------------------------|
D:-------------------------------------------------------|
A:----0000000000000000000000000000000000-----------------|
E:--------------------------------------0000000000000000-|
                                                        }  x2
G:-------------------------------------------------------|
D:-------------------------------------------------------|
A:-------------------------------------------------------|
E:----33333333333333333333333333333333333333333333333333-|

Post-verse: (0:50)

G:-------------------------|
D:-------------------------|    x4
A:----------3p1------------|
E:----0-5p3-----3p1-3p0----|

Pre-chorus: (1:03)

G:------------------------------------------------------------|
D:------------------------------------------------------------|    x2
A:------------------------------------------------------------|
E:----333333333333333333333333333333333-00000000000000000-----|
[ Tab from: https://www.guitartabs.cc/tabs/a/anthrax/belly_of_the_beast_btab.html ]
Chorus: (1:19)
G:-------------------------|
D:-------------------------|    x4
A:-------------------------|
E:----6-5-0000000000000----|

Verse: (1:30)

Post-verse: (2:02)

Pre-chorus: (2:15)

Chorus: (2:31)

Post-chorus/Solo Riff: (2:42)

G:--------------------------------------------------------------|
D:------------------------------------------------------    x14-|
A:--------------------------------------------------------------|
E:----4p0h5p0h6p0h7p0h6p0h5p0h4p0-0000000000000000000000--------|

Post-solo Riff 1: (3:26)

G:------------------------------|
D:------------------------------|    x4
A:-----------------------7------|
E:----4-5-6-7-6-5-4-5-4-0-------|

Post-solo Riff 2: (3:38)

G:----------------------------------|
D:----------------------------------|    x4
A:------------------------------7\--|
E:----0-0-00-0-0-00-0-0-00-0-0-0----|

Chorus: (3:51)

Pre-chorus: (4:02)

Chorus: (4:26)

Outro: (4:37)

G:-----------------------------------|
D:-----------------------------------|    x4
A:-----------------------------------|
E:----4p0h5p0h6p0h7p0h6p0h5p0h4p0----|

================================================================

This is my second tab so I think there are fewer mistakes than in my first tab, so 
enjoy the music.