Angels And Airwaves - Gift Chords & Tabs

 

Gift Chords & Tabs

Angels And Airwaves Chords & Tabs

Version: 2 Type: Tab

Gift Tab

The Gift
By: Angels & Airwaves

Tabbed by:  Jeff Martin

This is a fantastic song and very simple to play.  I will step up here with a 10-minute 
it sounds purdy goodÖ for a quickie!  Hehe

Standard Tuning, use heavy delay and set the timing right!

Opening and Verses: Listen to the song (close) for the rhythm.
(The verse is the same without the harmonics)

Harmonic = ( )

|-(7)-(7)-(7)-(7)- etc..-------------------------||
|------------------------------------------------||
|------------------------------------11----------|| Repeat A LOT
|-----------------------------9------------------||
|--------------------x-x-x-x----x-x--------------||
|--------------------7-7-7-7----7-7--------------||

A second guitar could play:
[ Tab from: https://www.guitartabs.cc/tabs/a/angels_and_airwaves/gift_tab_ver_2.html ]
|------------------||
|------------------||
|-11-11/13-9-8-----||
|--------------9---||
|------------------||
|------------------||

Pre-Chorus

|---------------||
|---------------||
|---------------|| Repeat as needed
|---------------||
|-6-7-----------||
|------7-9------||

Chorus: (the 09 is just the 9th fret, I did that for proper spacing, sorry)

|-14-14-14-14-14-14-14-14-|-14-14-14-14-14-14-14-14------||
|-12-12-12-12-12-12-12-12-|-12-12-12-12-12-12-12-12------||
|-11-11-11-11-11-11-11-11-|-09-09-09-09-09-09-09-09------|| REPEAT!
|-09-09-09-09-09-09-09-09-|-09-09-09-09-09-09-09-09------||
|--------------------------------------------------------||
|--------------------------------------------------------||

Thatís about the whole song.  The rhythm is a bit tricky, so just listen to the song and 
will make sense.

Thatís a simple as it gets.

Enjoy, and I hope it's close... it was a rush job!

Please let me know about corections.  T.I.A.