Anarbor - Passion For Publication Chords & Tabs

 

Passion For Publication Chords & Tabs

Anarbor Chords & Tabs

Version: 1 Type: Bass Tab

Passion For Publication Bass Tab

-----Intro First-----
(It's the calming before the storm)

0:14                       VERSE1
G|--------------------------------------------------------|X1
D|--------------------------------------------------------|
A|-------------------2222-------------------22222222------|
D|--12\777-7777--222--------777--7777--222----------------|

                           CHORUS
G|--------------------------------------------------------|x1
D|--------------------------------------------------------|
A|-------------2(x4)-------2(x4)-4(x2)--------------------|
D|-7(x8)-2(x4)-------7(x8)------------9(x2)-7~-7~-7~-7~-7-|
  (Just be pretty but na´ve)

                           VERSE2
G|--------------------------------------------------------|X1
D|--------------------------------------------------------|
A|-------------------2222-------------------2222----------|
D|-----777-7777--222--------777--7777--222----------------|
[ Tab from: https://www.guitartabs.cc/tabs/a/anarbor/passion_for_publication_btab.html ]
                           VERSE3
G|--------------------------------------------------------|x1
D|--------------------------------------------------------|
A|----------------2~--------------------22222222----------|
D|-7~--------2~----------7~--------2~---------------------|

                           CHORUS                  Prelude
G|-----------------------------------------|x1|---------------|x4
D|-----------------------------------------|  |---------------|
A|-------------2(x8)-------2(x4)-4(x2)-----|  |4(x2)----------|
D|-7(x8)-2(x4)-------7(x8)------------9(x2)|  |-----7(x2)9(x2)|
(Just be pretty but na´ve)


G|----------------------|x1
D|----------------------|
A|----------------2-2---|
D|-2-2------------------|
(wished you had undressed me in yourů)

                           CHORUS                  Prelude
G|-----------------------------------------|x1|---------------|x4
D|-----------------------------------------|  |---------------|
A|-------------2(x8)-------2(x4)-4(x2)-----|  |4(x2)----------|
D|-7(x8)-2(x4)-------7(x8)------------9(x2)|  |-----7(x2)9(x2)|
(Just be pretty but na´ve)

G|-------------------|x2
D|-------------------|
A|--4444-------------|
D|-------77777-9999--|

G|--------------------------------------------|x1
D|--------------------------------------------|  
A|-------------2(x8)-------2(x4)-4(x2)--------|  
D|-7(x8)-2(x4)-------7(x8)------------9(x2)-7~|  
(Just be pretty but na´ve)