Amon Amarth - Death In Fire Chords & Tabs

 

Death In Fire Chords & Tabs

Amon Amarth Chords & Tabs

Version: 2 Type: Bass Tab

Death In Fire Bass Tab

    _________________________________
--==   Amon Amarth - Death In Fire   ==--
    创创创创创创创创创创创创创创创创
Tune: BEAD
Tabbed by DOMI166
may it isn't correct

D |------------|
A |------------|
E |------------|
B |--0~-7-8-5--|

D |---------------------------------|
A |---------------------------------|
E |---------------------------------|
B |--0-5-7-0-5-7-0-5-8-8-0-7-8-0-5--|x2

D |------------------------------------------------|
A |------------------------------------------------|
E |------------------------------------------------|
B |--55-7-55-7-55-55-7-55-7-55-33333333-88888-555--|


D |--------------------------------------|
A |--------------------------------------|
E |--------------------------------------|
B |--0000000000000000000000000000-7-8-5--|
[ Tab from: https://www.guitartabs.cc/tabs/a/amon_amarth/death_in_fire_btab_ver_2.html ]
D |-----------------------|
A |-----------------------|
E |-----------------------|
B |--55-5-55-5-11-1-11-1--|

D |---------------------------------------|
A |---------------------------------------|
E |---------------------------------------|
B |--55-5-5-5-55-5-3-3-11-1-1-1-11-1-3-3--|

D |---------------------------------------|
A |---------------------------------------|
E |---------------------------------------|
B |--55555555-55555555-11111111-11111111--|

D |---------------------------------------|
A |---------------------------------------|
E |---------------------------------------|
B |--33333333-33333333-00000000-00000000--|

D |----------------|
A |----------------|
E |----------------|
B |--0~-7-10-7~-5--|


D |---------|
A |---------|
E |---------|
B |--7-8-5--|


D |----------------------------|
A |----------------------------|
E |----------------------------|
B |--33333333-88888-7-8-5-7-0--|