Aly And Aj - Collapsed Chords & Tabs

 

Collapsed Chords & Tabs

Aly And Aj Chords & Tabs

Version: 1 Type: Chords

Collapsed Chords

   
This is, as I believe, the chords and verse tabs to Collapse.  This is my first time 
a song other than mine, sooo itís not 100% correct so feel free to correct me if you
must.  
donít know about the bridge it all goes too fast, so if anyone can figure out the
bridge, please email me at mtx09@yahoo.com  ROCK ON!

Song: Collapse
Artists: Aly and Aj
Album: Into the Rush

Chords used:
E5 Ė   x577xx
C#5 Ė x466xx
B5 -    x244xx

E-----------------|------------------------|
B-----------------|------------------------|
G------0---------|-------------------------|
D--2-------------|---5-----5----4----------|
A----------2---5-|-------------------------|
E-----------------|------------------------|
(Repeat through-out the verses)

You were the one
That I couldnít find
Hidden away
In the depths of my mind

E---------------------------------------------------------------|
B---------------------------------------------------------------|
G---------------------------------------------------------------|
D---0--0--0--0--0--0--0--0--0--0--0--0--0--0--0--0--------------|
A---5--5--5--5--5--5--5--5--5--5--6--5--6--8--6--5--------------|
E---------------------------------------------------------------|
(Pre-Chorus)  *all 8th notes*

Why did I let you go youíre too good to be true
I messed it up and now I donít know what to do
[ Tab from: https://www.guitartabs.cc/tabs/a/aly_and_aj/collapsed_crd.html ]
(Chorus)
    E5   C#5                            B5
If I       knew that you were mine
E5       C#5                              B5
I          wouldnít have wasted time
E5       C#5                             B5
I          wish I could erase the past
B5                             [pause]
Now itís all collapse in my lap

E-----------------|------------------------|
B-----------------|------------------------|
G------0---------|-------------------------|
D--2-------------|---5-----5----4----------|
A----------2---5-|-------------------------|
E-----------------|------------------------|
(Repeat through-out the verses)

I over thought
So I locked up my heart (yeah)
There you stood
Your blue eyes
Hidden beneath your hood

E---------------------------------------------------------------|
B---------------------------------------------------------------|
G---------------------------------------------------------------|
D---0--0--0--0--0--0--0--0--0--0--0--0--0--0--0--0--------------|
A---5--5--5--5--5--5--5--5--5--5--6--5--6--8--6--5--------------|
E---------------------------------------------------------------|
(Pre-Chorus)  *all 8th notes*

Why did I let you go youíre too good to be true
I messed it up and now I donít know what to do

(Chorus)
    E5   C#5                            B5
If I       knew that you were mine
E5       C#5                              B5
I          wouldnít have wasted time
E5       C#5                             B5
I          wish I could erase the past
B5                             [pause]
Now itís all collapse in my lap

(That's all I can do for you! Rock on!)