All Time Low - Let It Roll Chords & Tabs

 

Let It Roll Chords & Tabs

All Time Low Chords & Tabs

Version: 1 Type: Bass Tab

Let It Roll Bass Tab

   
This is a great song to play during summer. It's fun and up beat and up lifting.
No funky stuff so its even easy for beginners. Have fun with this one ladies and gents.

Intro
G----------------------------------------------------------------|
D----------------------------------------------------------------|
A----------------------------------------------------------------|
E-00000000000000-555555555555444-000000000000000-555555555555555-|

"The time on the clock reads half past four.."
G---------------------------------------------|
D---------------------------------------------|
A-000000000-2222222222-00000000000-2222222222-|
E---------------------------------------------|

"But maybe I'm just wasting my time dreaming.."
G-----------------------------------------|
D-----------------------------------------|
A-----------------------------------------|
E-4-4-4-4-4-5-5-5-5-5-0-0-0-0-0-7-7-7-7-7-|

"I dont' wanna wake up..."
G---------------------------------|
D---------------------------------|
A---------------------------------|
R-4-4-4-4-4-5-5-5-5-7-7-7-7-7-7-7-|

Chorus
"Let it roll..."
G------------------------------------------------------------|
D------------------------------------------------------------|
A---------------000000000000000---------------00000000000000-|
E-00000000000000---------------000000000000000---------------|

After chorus
G---------------------------------|
D---------------------------------|
A-44-44-0~44-44-0~----------------|
E------------------22-22-4~-55-77-|
[ Tab from: https://www.guitartabs.cc/tabs/a/all_time_low/let_it_roll_btab.html ]
"Out here the hills roll on for miles.."
G---------------------------------------------|
D---------------------------------------------|
A-000000000-2222222222-00000000000-2222222222-|
E---------------------------------------------|

"When itís rising, when it set..."
G-----------------------------------------|
D-----------------------------------------|
A-----------------------------------------|
E-4-4-4-4-4-5-5-5-5-5-0-0-0-0-0-7-7-7-7-7-|

"And playing one more game..."
G--------------|
D--------------|
A-0~~0~~-------|
E-------0~~0~~-|

"I know i'll never die alone..."
G-------------|
D-------------|
A-------------|
E--2~~4~~7~~~~

Chorus
"Let it roll.."
G------------------------------------------------------------|
D------------------------------------------------------------|
A---------------000000000000000---------------00000000000000-|
E-00000000000000---------------000000000000000---------------|

"Take, take a breath..."
G-------------------------------|
D-------------------------------|
A-44444444444444----------------|
E---------------555555555555555-|

"That we don't last..."
G----------------------------------------|
D----------------------------------------|
A---------------------2222222222222-0000-|
E-000000000000-222-444-------------------|

"Let it roll..."
G-----------|
D-----------|
A-----0~~~0-|
E-0~~~------|

Music kicks back in
"Let it roll..."
G----------------------------------------------------|
D----------------------------------------------------|
A--------------000000000000-44444444-2222222-0000000-|
E-0000000000000--------------------------------------|

After chorus
G-------------------|
D-------------------|
A-44-44-0~~44-44~~~-|
E-------------------|

Thats it, very fun to play and it makes you wanna rock out like Zack, haha have
fun. Any questions? e-mail me at alwaysfalling01@hotmail.com