All Time Low - Forget About It Chords & Tabs

 

Forget About It Chords & Tabs

All Time Low Chords & Tabs

Version: 2 Type: Bass Tab

Forget About It Bass Tab

   
---------------------------------------------------------------------------
Forget About It Ė All Time Low
---------------------------------------------------------------------------

Tabbed By : mrb3nbass
e-mail: mrb3nbass@gmail.com

Hey guys I wasnít very impressed by the other tab on UG of this song so Iíve based this 
tab from the studio version and some live videos. The notes are all correct but there 
might be a few variations in where they are played on the fret board.

Tuning: Standard EADG

Intro: x1                           *12ís
G|------------------------------------------------------------------------|
D|------------------------------------------------------------------------|
A|------------------------------------------------------------------------|
E|---7\-00000000-00000000-00000000-/12121212-444--------------------------|

Verse: x2
G|------------------------------------------------------------------------|
D|------------------------------------------------------------------------|
A|------------------------------------------------------------------------|
E|--00000000-00000000-00000000-0000-444-----------------------------------|

Pre-Chorus: x1
G|------------------------------------------------------------------------|
D|------------------------------------------------------------------------|
A|--77777777-66666666-55555555-44444444-33333333-55552--------------------|
E|------------------------------------------------------7\----------------|

Chorus: x1
G|------------------------------------------------------------------------|
D|------------------------------------------------------------------------|
A|---------24--44--------------22--24--44-------------------------14\-----|
E|--0--00----------44--55--00--------------45--55--5-777777777\-----------|

Intro: x1                           *12ís
G|------------------------------------------------------------------------|
D|------------------------------------------------------------------------|
A|------------------------------------------------------------------------|
E|------00000000-00000000-00000000-/12121212--444-------------------------|


Verse: x1 *(Zack plays the octave the first time)
G|------------------------------------------------------------------------|
D|------------------------------------------------------------------------|
A|--77777777-77777777-77777777-7777---------------------------------------|
E|----------------------------------444-----------------------------------|

G|------------------------------------------------------------------------|
D|------------------------------------------------------------------------|
A|------------------------------------------------------------------------|
E|--00000000-00000000-00000000-0000-444-----------------------------------|
[ Tab from: https://www.guitartabs.cc/tabs/a/all_time_low/forget_about_it_btab_ver_2.html ]
Pre-Chorus: x1
G|------------------------------------------------------------------------|
D|------------------------------------------------------------------------|
A|--77777777-66666666-55555555-44444444-33333333-55552--------------------|
E|------------------------------------------------------7\----------------|





Chorus: x1                                                    *(hold the B)
G|------------------------------------------------------------------------|
D|------------------------------------------------------------------------|
A|---------24--44--------------22--24--44---------------------/14---------|
E|--0--00----------44--55--00--------------45--55--5-777777777------------|

Guitar Solo: x1 (slight variation in the timing here)
G|------------------------------------------------------------------------|
D|------------------------------------------------------------------------|
A|-----------24--44--------------22--24--44-------------------------------|
E|--0-0--00----------44--55--00-------------------------------------------|

G|------------------------------------------------------------------------|
D|------------------------------------------------------------------------|
A|-------------------/1414141414141414------------------------------------|
E|--4555-5--577777777-----------------------------------------------------|

Bridge: (just rest here and come in on 3a)
G|------------------------------------------------------------------------|
D|------------------------------------------------------------------------|
A|------------------------------------------------------------------------|
E|-----------------------------------444----------------------------------|
     1a2a3a4a 1a2a3a4a 1a2a3a4a 1a2a3a

Rest for 4 more bars

Chorus: x1 (timing is slightly different here too)
G|------------------------------------------------------------------------|
D|------------------------------------------------------------------------|
A|---------24--44--------------22--24--44-----------/1414141414141414-----|
E|--0--00----------44--55--00--------------45--55--5----------------------|

G|------------------------------------------------------------------------|
D|------------------------------------------------------------------------|
A|-----------24--44--------------22--24--44-------------------------------|
E|--0-0--00----------44--55--00-------------45--55ó5-777777777\-----------|

Outro: x1
G|------------------------------------------------------------------------|
D|------------------------------------------------------------------------|
A|---14\------------------------------------------------------------------|
E|-------00000000-00000000-00000000-/12121212-444-------------------------|


| /  slide up
| \  slide down
| h  hammer-on
| p  pull-off
| ~  vibrato
| +  harmonic
| x  Mute note
===========================================================================