All-american Rejects - Dance Inside Chords & Tabs

 

Dance Inside Chords & Tabs

All-american Rejects Chords & Tabs

Version: 2 Type: Tab

Dance Inside Tab

   
-------------------------------------------------------------------------------
			     DANCE INSIDE - The All-American Rejects
-------------------------------------------------------------------------------
Tabbed by:jha


Tuning:standard

intro              x3
e|-----------------|---------------------------------------------------------|
B|--5--5-4h5-5-----|--5--5-4/2------5--5-4h5-5--------------------------------|
G|--------------4--|-----------4/1--------------4----------------------------|
D|-----------------|---------------------------------------------------------|
A|-----------------|---------------------------------------------------------|
E|-----------------|---------------------------------------------------------|
[ Tab from: https://www.guitartabs.cc/tabs/a/all_american_rejects/dance_inside_tab_ver_2.html ]
e|-------------------------------19-16---------------------------------------|
B|--55h7p5-4-5--5--5-4h5-5-----------14-------------------------------------|
G|---------------------------4-4---------------------------------------------|
D|---------------------------------------------------------------------------|
A|---------------------------------------------------------------------------|
E|---------------------------------------------------------------------------|

verse
e|---------------------------------------------------------------------------|
B|--5--4--5------------------------------------------------------------------|
G|-----------4~--------------------------------------------------------------|
D|------------------4--6--7-6--4---------------------------------------------|
A|---------------------------------------------------------------------------|
E|---------------------------------------------------------------------------|


| /  slide up
| \  slide down
| h  hammer-on
| p  pull-off
| ~  vibrato
| +  harmonic
| x  Mute note
===============================================================================