All-american Rejects - Change Your Mind Chords & Tabs

 

Change Your Mind Chords & Tabs

All-american Rejects Chords & Tabs

Version: 1 Type: Bass Tab

Change Your Mind Bass Tab

CHANGE YOUR MIND
THE ALL-AMERICAN REJECTS / MOVE ALONG

TABBED BY:  ERIC LESKO
	    MIKE MCDANIEL

Play As Tabbed

Key:
    ~~~   =   play as whole note

|-----------------------------|--------------------------------|
|-----------------3------3----|--------------------------------|
|--3------3-------------------|--------------------------------| x3
|-----------------------------|--5------5------3------3--------|

|-----------------------------|--------------------------------|
|-----------------------------|--------------------------------|
|-----------------5------5----|--3------3------3------3--------|
|--6------6-------------------|--------------------------------|

|-----------------------------|--------------------------------|
|-----------------------------|--------------------------------|
|-----------------5------5----|--33333333333333333-------------|
|--6------6-------------------|--------------------------------|

|--------------------------------------------------------------|
|--------------------------------------------------------------|
|--8888888888888888--------------------8888888888888888--------|
|--------------------6666666666666666--------------------------|

|--------------------------------------------------------------|
|--------------------------------------------------------------|
|--------------------5555555555555555--3333333333333333--------|
|--6666666666666666--------------------------------------------|

|--------------------------------------------------------------------------|
|--------------------------------------------------------------------------|
|--1111111111111111--11-1--|
|--------------------------------------------------------------------------|

|--------------------------------------------------------------|
|------------33333333------------------------------------------|
|--33333333----------------------------------------------------| x2
|----------------------55555555--33333333----------------------|

|--------------------------------------------------------------|
|--------------------------------------------------------------|
|--------5555--3333--3333--------------------------------------| x2
|--6666--------------------------------------------------------|

|--------------------------------------------------------------|
|--------------------------------------------------------------|
|--8888888888888888--------------------8888888888888888--------|
|--------------------6666666666666666--------------------------|

|--------------------------------------------------------------|
|--------------------------------------------------------------|
|--------------------5555555555555555--3333333333333333--------|
|--6666666666666666--------------------------------------------|
[ Tab from: https://www.guitartabs.cc/tabs/a/all_american_rejects/change_your_mind_btab.html ]
|--------------------------------------------------------------------------|
|--------------------------------------------------------------------------|
|--1111111111111111--11-1--|
|--------------------------------------------------------------------------|

|--------------------------------------------------------------|
|--------------------------------------------------------------|
|--------------------------------------------------------------| x2
|--55555555--66666666--8888888888888888-----------------------|

|--------------------------------------------------------------|
|--------------------------------------------------------------|
|--8-8-8-8-5-5-5-5--------------------------------------------|
|--------------------8-8-8-8--6-6-6-6--------------------------|

|--------------------------------------------------------------|
|--------------------------------------------------------------|
|--8-8-8-8-5-5-5-5-------------------------------------------|
|--------------------8-8-8-8-6-6-6-6--------------------------|

|--------------------------------------------------------------|
|--------------------------------------------------------------|
|--------------------------------------------------------------|
|--5-5-5-5-5-5-5-5-3-3-3-3-3-3-3-3--------------------------|

|--------------------------------------------------------------|
|--------------------------------------------------------------|
|------------------1-1-1-1-1-1-1-1-----------------------------| x2
|--1-1-1-1-1-1-1-1---------------------------------------------|

|--------------------------------------------------------------|
|--------------------------------------------------------------|
|--8888888888888888--------------------8888888888888888--------|
|--------------------6666666666666666--------------------------|

|--------------------------------------------------------------|
|--------------------------------------------------------------|
|--------------------5555555555555555--3333333333333333--------|
|--6666666666666666--------------------------------------------|

|--------------------------------------------------------------------------|
|--------------------------------------------------------------------------|
|--1111111111111111--11-1--|
|--------------------------------------------------------------------------|

|--------------------------------------------------------------|
|--------------------------------------------------------------|
|--8-8-8-8--5-5-5-5--3-3-3-3--1-1-1-1-------------------------| x3
|--------------------------------------------------------------|

|------------------------------------------------------------------------------------|
|------------------------------------------------------------------------------------|
|--88888888--55555555--33-1-3-3------------------------------|
|------------------------------------------------------------------------------------|

 2007 Mike McDaniel