Alice Cooper - Department Of Youth Chords & Tabs

 

Department Of Youth Chords & Tabs

Alice Cooper Chords & Tabs

Version: 1 Type: Chords

Department Of Youth Chords

   
Man oh man is it ever hard to find Alice cooper tabs on the internet eh! hope this 
rock on, cooper fans!

Alice Cooper  Department of Youth

F  Bb C5

We're in trouble all the time.
            F
You read about us all in the papers.
      Bb                     C5
We walk around
And bump into walls a blind delegation.
And we ain't afraid of high power,
E         Am
We're bullet proof,
And we've never heard of Eisenhower,
                Dm                 C
Missile power, justice or truth.
Bb                F/A           G

[Chorus:]
We're the department of youth,
               Bb                           A
Your new department of youth,
              Dm                    Dm        Dm/C
We're the department of youth,
               Bb                           A
Just me and yout.
[ Tab from: https://www.guitartabs.cc/tabs/a/alice_cooper/department_of_youth_crd.html ]
We talk about this whole stupid world,
And still come out laughing,
We never make any sense,
But hell, that never mattered,
But we'll make it
Through our blackest hour,
We're living proof,
And we're never heard of Billy Sunday,
Damon Runyon manners or Couth.
[Chorus]

We're the department of youth,
The new department of youth,
We're the department of youth,
We've got the power,
We're the department of youth.

Riff 1
|------------------------|
|------------------------|
|------------------------|
|------------------------|
|---------3-5-3----------|
|-1-1-3/5-------5--------|

Riff 2
|------------------------|
|-6^-6^-6^-6^-5----------|
|------------------------|
|------------------------|
|------------------------|
|------------------------|

Riff 3
|------------------------|
|------------------------|
|------------------------|
|------------------------|
|---------3--------------|
|-5-5-3-5-----1-1-0-1-5--|

questions comments to use_your_illusion61@hotmail.com
Nov. 27 2006