Alexz Johnson - Skips Chords & Tabs

 

Skips Chords & Tabs

Alexz Johnson Chords & Tabs

Version: 2 Type: Tab

Skips Tab

   
Intro:

e---0-0------0--------------0-0------0--------------------|
b-1-----1--3---3-1-1---1--------1--3---3-1-1--------------|
g-2----------------2---2-------------------2--------------|
d---------------------------------------------------------|
a---------------------------------------------------------|
e---------------------------------------------------------|

CHORUS1
I feel my heart doesnít fit Cause it beats too many times And its skips Running races in my head
e---0-0------0--------------0-0------0------------0-0------0------------|
b------1--3---3-1-1------------1--3---3-1-1----1-----1--3---3-1-1-------|
g-----------------2-----------------------2----2----------------2-------|
d-----------------------------------------------------------------------|
a-----------------------------------------------------------------------|
e-----------------------------------------------------------------------|
CHORUS2
I feel my hands donít work Touching your skin In the Dark I was put there to Not meant to kick out of it

e---0-0------0-------------0-0------0------------0-0------0----------|
b-------1--3---3-1-1-----------1--3---3-1-1----------1--3---3-1-1----|
g------------------2----------------------2---------------------2----|
d--------------------------------------------------------------------|
a--------------------------------------------------------------------|
e--------------------------------------------------------------------|

Close to your skin
e---------------------|
b-1-1-1-1-------------|
g-2-2-2-2-------------|
d---------------------|
a---------------------|
e---------------------|


Up and down In this merry-go-round Take me up me back in one piece But let me feel you
e---0-0-----0------0-0-----0--------|
b-1-----1-3---3-1------1-3---3-1-1--|
g-2-------------2----------------2--|
d-----------------------------------|
a-----------------------------------|
e-----------------------------------|

Well here I am And myself again Ready to fake it on the wheel But let me break him in

e---0-0------0-------------0-0------0------------0-0------0-------|
b-1-----1--3---3-1-1-----------1--3---3-1-1---------1--3---3-1-1--|
g-2----------------2----------------------2-------------------2---|
d-----------------------------------------------------------------|
a-----------------------------------------------------------------|
e-----------------------------------------------------------------|
[ Tab from: https://www.guitartabs.cc/tabs/a/alexz_johnson/skips_tab_ver_2.html ]
let me break him in
e------------------------------|
b-1-1-1-1----------------------|
g-2-2-2-2----------------------|
d------------------------------|
a------------------------------|
e------------------------------|

CHORUS3
C          C                C                 C                  C
I made a choice Try and make myself invisible Make sure I can fit it
        C
Cause Iím sick of
C                C           C
miserable Hidden by some lies Sacrifice

C              C                C                 C           C
my friendly ties Started from scratch Wont attack if he walks my way
 C                C
Hear what he has to say


I feel my heart doesnít fit Cause it beats too many times And its skips Running races in my head
e---0-0------0--------------0-0------0------------0-0------0----------|
b-1-----1--3---3-1-1------------1--3---3-1-1----------1--3---3-1-1----|
g-2----------------2-----------------------2---------------------2----|
d---------------------------------------------------------------------|
a---------------------------------------------------------------------|
e---------------------------------------------------------------------|


I feel my hands donít work Touching your skin In the Dark I was put there to
Not meant to kick out of it

 e---0-0------0-------------0-0------0------------0-0------0---------|
b-------1--3---3-1-1-----------1--3---3-1-1----------1--3---3-1-1----|
g------------------2----------------------2---------------------2----|
d--------------------------------------------------------------------|
a--------------------------------------------------------------------|
e--------------------------------------------------------------------|

C          C                C                 C                  C
I made a choice Try and make myself invisible Make sure I can fit it
        C
Cause Iím sick of
C                C           C
miserable Hidden by some lies Sacrifice

C              C                C                 C           C
my friendly ties Started from scratch Wont attack if he walks my way
 C                C
Hear what he has to say

I feel my heart doesnít fit Cause it beats too many times And its skips Running races in my head
e---0-0------0-0------0--------0-0------0----------|
b------1-1-------1--3---3-1-1------1--3---3-1-1----|
g--------2------------------2-----------------2----|
d--------------------------------------------------|
a--------------------------------------------------|
e--------------------------------------------------|