Alestorm - Shipwrecked Chords & Tabs

 

Shipwrecked Chords & Tabs

Alestorm Chords & Tabs

Version: 1 Type: Bass Tab

Shipwrecked Bass Tab

   
Song  : Shipwrecked
Band  : Alestorm
Album : Back Through Time
Bassist : Gareth Murdock
Tuning : C F A# D#
Beat : 105

Note that each dash is a semiquaver
Chaque tiret correspond  une double croche

Intro
D#|----------------------------------------------------------------|
A#|----------------------------------------------------------------|
F |----------------------------------------------------------------|
C |0000----------------------------0000----------------2-2-2-2-2-2-|

Main Theme
|----------------------------------------------------------------|
|----------------------------------------------------------------|
|2-222222----------------------------------------5-5-55-57-7-7-7-|
|--------3-335-557-7777773-335-557-7777773-335-55----------------|

|----------------------------------------------------------------|
|----------------------------------------------------------------|
|------------------------------------------------5-5-55-57-7-9-9-|
|7-7777773-335-557-7777773-335-557-7777773-335-55----------------|

Verse
|----------------------------------------------------------------|
|----------------------------------------------------------------|
|--------------------------------5555555555555555----------------|
|77777777777777773333333333333333----------------5555555522222222|

|----------------------------------------------------------------|
|----------------------------------------------------------------|
|--------------------------------5555555555555555----------------|
|77777777777777773333333333333333----------------2222222222222222|

Pre-Chorus
|----------------------------------------------------------------|
|----------------------------------------------------------------|
|----------------------------------------------------------------|
|333333-3333333-3555555-5555555-50000000022222222----------------|

Chorus
|----------------------------------------------------------------|
|----------------------------------------------------------------|
|2-2-2-2-5-5-5-5-0-000---------0-2-222-4-5-555-2-0-000-----------|
|----------------------3-0-000-------------------------3-0-0-0-00|
[ Tab from: https://www.guitartabs.cc/tabs/a/alestorm/shipwrecked_btab.html ]
|----------------------------------------------------------------|
|----------------------------------------------------------------|
|2-222-4-5-555-2-0-000---------0-2-222-4-5-555-2-0-000-----0-2-2-|
|----------------------3-0-000-------------------------3-0-------|

Main Theme

Verse

Chorus

Bridge x2
|----------------------------------------------------------------|
|----------------------------------------------------------------|
|---------------------------33557--------------------------------|
|006065-350000000006065-3566-----006065-350000000006065-055556666|

Main Theme Brake
|----------------------------------------------------------------|
|9---9---5---7---9---9---5---7---9---9---5---7-------------------|
|------------------------------------------------5---5---7---7---|
|--7---7---3---5---7---7---3---5---7---7---3---5---5---5---7---7-|

|----------------------------------------------------------------|
|9---9---5---7---9---9---5---7---9---9---5---7-------------------|
|------------------------------------------------5-5-55-57-7-9-9-|
|--7---7---3---5---7---7---3---5---7---7---3---5-----------------|

Chorus (final)
|----------------------------------------------------------------|
|----------------------------------------------------------------|
|2-2-2-2-5-5-5-5-0-000---------0-2-222-4-5-555-2-0-000-----------|
|----------------------3-0-000-------------------------3-0-0-0-00|

|----------------------------------------------------------------|
|----------------------------------------------------------------|
|2-222-4-5-555-2-0-000---------0-2-222-4-5-555-2-0-0-0-0-0-0-0-0-|
|----------------------3-0-000-----------------------------------|

Outro
|----------------------------------------------------------------|
|----------------------------------------------------------------|
|------------------------------------------------5555555577777777|
|777777773333555577777777333355557777777733335555----------------|

|----------------------------------------------------------------|
|----------------------------------------------------------------|
|------------------------------------------------5555555577779999|
|777777773333555577777777333355557777777733335555----------------|

Enjoy !!!