Alabama 3 - Woke Up This Morning Chords & Tabs

 

Woke Up This Morning Chords & Tabs

Alabama 3 Chords & Tabs

Version: 1 Type: Bass Tab

Woke Up This Morning Bass Tab

   
                       Band: Alabama 3
                       Song: Woke Up This Morning
                  Tabbed By: Chris Povey (metallica-best@hotmail.co.uk)


b = bend
~ = almost like bending, you know.

you can step in at the time 1.46
F|-----------------|
C|-----------------|
G|-----------------|
D|-3b--3b--3b--5~--|

bass joins at 02.30
F|-------------------|
C|-------------------|
G|-------------4~-5~-|
D|-3~--5~--3~--------| repeat 3 times

F|-----------------|
C|-----------------|
G|-------------4~--|
D|-3~--5~--3~------| NOTE!: the last 4~ should be played an octave lower!

variation
F|-------------------------|
C|-------------------------|
G|-------------------4~-5~-|
D|-3~-3~-5~-5~-3~-3~-------| repeat 3 times
[ Tab from: https://www.guitartabs.cc/tabs/a/alabama_3/woke_up_this_morning_btab.html ]
F|-------------------|
C|-------------------|
G|-------------4~-4~-|
D|-3~--3~--3~--------| NOTE!: the two last 4~ should be played an octave lower!


just play these parts and check the places where you rest!

If you have a 5-string bass, then here's the tab you'll need!

main riff
G|-------------------|
D|-------------------|
A|-------------------|
E|-------------7~-8~-|
B|-6~--8~--6~--------|

every 4th time during main riff
G|-------------------|
D|-------------------|
A|-------------------|
E|-------------------|
B|-6~--8~--6~--0(~)--|

Copyright  2007 Internet Guitar Database (IGDb.co.uk) All Rights Reserved

Fender Guitar Parts & Clothing Save On Epson Inkjet Acoustic Guitar Lessons Free
Solo Guitar Video Lessons Guitar Tab Free Christian Dating Micro SD Harmony
Guitar Picks Plectrums UK business search engine search engine optimisation