Air Supply - Lost In Love Chords & Tabs

 

Lost In Love Chords & Tabs

Air Supply Chords & Tabs

Version: 1 Type: Bass Tab

Lost In Love Bass Tab

   
-------------------------------------------------------------------
                     LOST IN LOVE  Air Supply
-------------------------------------------------------------------

Tabbed By: Matt Broback
e-mail: 37hambone@gmail.com


Tuning:  E A D G
                                                                
|-------------------------------------------------7---|
|--------------------------------------------5-7/9-975|
|-5-5---5-5-23-3---3-3--32----------------5-5---------|
|3---3-3---5----3-3---3---5-50-05-50-2-3-3------------|

|----------------------------------------------------------------|
|-5-5---5-57-8910-10-----10-1012109-7-7---7-71097-5-5---5--54567-|
|5---5-5------------10-10--------------7-7-----------5-5--5------|
|----------------------------------------------------------------|

||-------------------------------------------|--------|-------------------|
||:------------------------------------------|--------|---------5/75--255-|
||:----------------------------------4-444444|44444444|33333333-----35---3|
||-55-57-77-78-88-023-2320-00-25-55-5--------|--------|-------------------|
[ Tab from: https://www.guitartabs.cc/tabs/a/air_supply/lost_in_love_btab.html ]
                                               1.,2.   3.
|---------------------------------------------|---7---|---797--|
|------------------------------7-7--7-------5-|7/9-97-|7/9---7-|
|---5-5---543-3---3-3--3----7-7---7--7---5-5--|------5|--------|
|3-3---3-3-----3-3---3---5-5----------3-3-----|-------|--------|

 -----------------------------------------------------
 1.
|-----------------------------------------------------||
|5-5---5-5---------------------7-7--7----------------:||
|---5-5---543-3---3-3--3----7-7---7--7---5-5------20-:||
|--------------3-3---3---5-5----------3-3---3-0323----||

 -----------------------------------------------------
 2.
|-----------------5-5754----------54------------------||
|5-5---5-5-----5-5-------7-7---7-7--7-5-5------------:||
|---5-5---543-3-------------7-7----------5-5------20-:||
|-------------------------------------------3-0323----||

 --------------------------------------------------------
 3.
|--------------------------------------------------------|
|5-5---5-57-8910-10-----10-1012109-7-7---7-71097-5-5---5-|
|---5-5------------10-10--------------7-7-----------5-5--|
|--------------------------------------------------------|

 ------------------------------------------------------------
 3. (cont)
|4-74--------------------------------------------------797---||
|----7-5-5---5-5------------------------------------7/9---7-:||
|-----5---5-5---543-3---3-35-32---7-7---7------5-5----------:||
|--------------------3-3-------5-5---5-5--5-3-3---3----------||