Air - Modular Mix Chords & Tabs

 

Modular Mix Chords & Tabs

Air Chords & Tabs

Version: 1 Type: Bass Tab

Modular Mix Bass Tab

Song: Modular Mix
Artist: Air
Album: Premiers Symptomes
Composers: Nicolas Godin and Jean-Benoīt Dunckel
Tabbed by: Kris Pender


Riff 1
[ Tab from: https://www.guitartabs.cc/tabs/a/air/modular_mix_btab.html ]
G|-------------------------------|
D|----7---7----------------------|
A|------------5-5h6h7------------|
E|--5----------------------------|

Riff 2

G|-----------------------------|
D|-----------------------------|
A|-------1--3------------------|
E|--3-3--------5-5--6--4-------|