Aiden - I Set My Friends On Fire Chords & Tabs

 

I Set My Friends On Fire Chords & Tabs

Aiden Chords & Tabs

Version: 1 Type: Bass Tab

I Set My Friends On Fire Bass Tab

Band: Aiden
Song: I Set My Friends On Fire
Album: Our Gangs Dark Oath

G|------------------------------------------/-----|
D|-----------------------------------------/x2----|
A|----------222-2222--444--4444--444-4444/-------|
D|-111-1111------------------------------/-----1~-|

G|-------|-------|-------|-----------|
D|-------|-------|-------|-----------|
A|-------|-------|-------|-2222-4444-|
D|-111-1-|-111-1-|-111-1-|-----------| x2

G|---------------------------------|
D|---------------------------------|
A|-----------------2222222-4444444-|
D|-111111111111111-----------------|

G|---------|---------|---------|---------|
D|---------|---------|---------|---------|
A|---------|---------|-2-22-22-|-4-44-44-|
D|-1-11-11-|-1-11-11-|---------|---------| x2

G|-------|------------|-------|--------------/-----|
D|-------|------------|-------|-------------/x2----|
A|-------|------------|-222-2~|-4-44-44-44-/-------|
D|-111-1~|-1-11-11-11-|-------|-----------/-----1~-|

G|-----|-----|-----|-----|
D|-----|-----|-----|-----|
A|-----|-----|-2~--|-4~--|
D|-1~--|-1~--|-----|-----| x2
[ Tab from: https://www.guitartabs.cc/tabs/a/aiden/i_set_my_friends_on_fire_btab.html ]
G|------------------------------------/----|
D|-----------------------------------/x2---|
A|-----------------2222222-4444444--/------|
D|-111111111111111-----------------/----1~-|

G|-------------------------------------------------------------------|
D|-------------------------------------------------------------------|
A|-------------------------------------------------------------------|
D|-1/88888888888888--66666666666666--44444444444444--333333333333333-|

G|--------------------------------------------------------------------|
D|--------------------------------------------------------------------|
A|--------------------------------------------------------------------|
D|-88888888888888--66666666666666--44444444444444--333333333333333-3~-|

G|--------------------------------------------------------------------|
D|--------------------------------------------------------------------|
A|--------------------------------------------------------------------|
D|-88888888888-888--66666666666-666--44444444444-444--333333333333333-|

G|--------------------------------------------------------------------|
D|--------------------------------------------------------------------|
A|--------------------------------------------------------------------|
D|-88888888888888--66666666666666--44444444444444--333333333333333-8~-|