Agony Scene - We Bury Our Dead At Dawn Chords & Tabs

 

We Bury Our Dead At Dawn Chords & Tabs

Agony Scene Chords & Tabs

Version: 5 Type: Tab

We Bury Our Dead At Dawn Tab

   
Title:  We Bury Our Dead At Dawn:  (Right Ear / Guitar 2)
Artist:  The Agony Scene
Tuning:  Drop C

Key
***
X 		 Hard palm mute
. 		 Palm mute
h 		 Hammer-on
p 		 Pull-off
<> 		 Pinch harmonic and vibrato
/ 		 Slide down
\ 		 Slide up
* 		 Natural harmonic
~ 		 Ring out

Please copy and paste into Microsoft Word for best results under the font:
Times; size 12

Enjoy.


Intro
D|----------------------------------------------------------------------|
A|----------------------------------------------------------------------|
F|----------------------------------------------------------------------|
C|--------7-----------0~--0-------------0~--1-0~--1-0--00000000000------|
G|--------5*--(X8)--0~--0--(pause)--0~--1-0~--1-0--00000000000----------|
C|--000--------------0~--0-------------0~--1-0~--1-0--00000000000--11\--|
      . . .                          X                                       . . . . . . . . . . .

Riff A / Verse
D|--------------------------------------------------------------|   x3
A|--------------------------------------------------------------|
F|--------------------------------------------------------------|
C|--0-----1p0-------1p0-------1p0--0h1h3--0---------------------|
G|--0-----1p0--5*--1p0--5*--1p0--0h1h3--0-----------------------|
C|--0--0--1p0-------1p0-------1p0--0h1h3--0---------------------|
                 .



D|-------------------------------------------------------|
A|-------------------------------------------------------|
F|-------------------------------------------------------|
C|--0-----1p0-----------000--1p0-------------------------|
G|--0-----1p0--4-4-4--000--1p0--4-4-4--------------------|
C|--0--0--1p0----------000--1p0--------------------------|
           .                       . . .

Riff B / Pre-Chorus
D|-----------------------------------------------------------|   x3
A|-----------------------------------------------------------|
F|-----------------------------------------------------------|
C|--0--0--1--0--4--0--1--0--4--0--1--0--0--1--4--------------|
G|--0--0--1--0--4--0--1--0--4--0--1--0--0--1--4--------------|
C|--0--0--1--0--4--0--1--0--4--0--1--0--0--1--4--------------|
           .    .   .    .    .    .   .    .   .    .    .   .    .    .

D|-------------------------------------------------------|
A|-------------------------------------------------------|
F|-------------------------------------------------------|
C|--0-----1p0-----------000--1p0-------------------------|
G|--0-----1p0--4-4-4--000--1p0--4-4-4--------------------|
C|--0--0--1p0----------000--1p0--------------------------|
           .                       . . .

Riff C / Chorus
D|---------------------------------|   x2
A|---------------------------------|
F|---------------------------------|
C|--0-----------8------------------|
G|--0--(x16)--8--(x16)-------------|
C|--0-----------8------------------|
      .                .

D|---------------------------------|   x2
A|---------------------------------|
F|--------7~-----------------------|
C|--0~--7~--8~--10--8--------------|
G|--0~--5~--8~--8---8--------------|
C|--0~-------8~--8---8-------------|


Riff D
D|-----------------------------------------------|
A|-----------------------------------------------|
F|-----------------------------------------------|
C|--0~--11~--2~--0~--0---------------------------|
G|--0~--11~--2~--0~--0---------------------------|
C|--0~--11~--2~--0~--0---------------------------|
                                   X
[ Tab from: https://www.guitartabs.cc/tabs/a/agony_scene/we_bury_our_dead_at_dawn_tab_ver_5.html ]
Riff E
D|-------------------------------------------------------------------|   x2
A|-------------------------------------------------------------------|
F|-------------------------------------------------------------------|
C|-------------------------------------------------------------------|
G|--0h5h8-(x8)--0h4h7--(x8)--0h7h10--(x8)--0h5h8--(x6)--0h4h7--(x2)--|
C|-------------------------------------------------------------------|

D|-------------------------------------------------------------------|
A|-------------------------------------------------------------------|
F|-------------------------------------------------------------------|
C|-------------------------------------------------------------------|
G|--5h8-(x8)--4h7--(x8)--7h10--(x8)--5h8--(x6)--<5>------------------|
C|-------------------------------------------------------------------|

Riff F
D|--------------------------------------------------------|
A|--------------------------------------------------------|
F|--------------------------------------------------------|
C|--0--00000--00000--00000--00000-------------------------|
G|--0--00000--00000--00000--00000-------------------------|
C|--0--00000--00000--00000--00000-------------------------|
      .    . . . . .    . . . . .   . . . . .    . . . . .

D|----------------------------------------------------|
A|----------------------------------------------------|
F|----------------------------------------------------|
C|--11--1111111111---------2--2222--------------------|
G|--11--1111111111--(x4)--2--2222--(x4)---------------|
C|--11--1111111111---------2--2222--------------------|
              .   .   .   .   .                   . . . .


D|--------------------------------------------------------------------|
A|--------------------------------------------------------------------|
F|--------------------------------------------------------------------|
C|--00-----------00------------00-------------------------------------|
G|--00-----------00------------00-------------------------------------|
C|--00--3h6p0--00--3h6p0--00--3h6p0--3h6p0--0h2h3---------------------|
      . .                . .                 . .

Riff G
D|--------------------------------------------------------------------------------|
A|--------------------------------------------------------------------------------|
F|--------------------------------------------------------------------------------|
C|--0~--0-1~--0-1-3--0~--0-1~-----------------------------------------------------|
G|--0~--0-1~--0-1-3--0~--0-1~--XxPick slide after Guitar 1xX----------------------|
C|--0~--0-1~--0-1-3--0~--0-1~-----------------------------------------------------|
             .         .  .  .           .

Riff C / Chorus
D|---------------------------------|   x2
A|---------------------------------|
F|---------------------------------|
C|--0-----------8------------------|
G|--0--(x16)--8--(x16)-------------|
C|--0-----------8------------------|
      .                .

D|------------------------------------------------------------------|   x2
A|------------------------------------------------------------------|
F|------------------------------------------------------------------|
C|-------3--5--5h7-----3---5---5h7h10--8--7--8--10---8---7--8--7p0--|
G|------------------------------------------------------------------|
C|--0-0---0--0-----0-0---0---0----------0--0--0--0----0---0---------|
      .   .     .   .        .  .     .     .               .   .    .    .      .     .

Ending
D|---------------------------------------------------|
A|---------------------------------------------------|
F|---------------------------------------------------|
C|--0-1-3-0~~~---------------------------------------|
G|--0-1-3-0~~~---------------------------------------|
C|--0-1-3-0~~~---------------------------------------|
      .   .  .