After The Burial - Isolation Theory Chords & Tabs

 

Isolation Theory Chords & Tabs

After The Burial Chords & Tabs

Version: 1 Type: Tab

Isolation Theory Tab

   
-------------------------------------------------------------------------------
			Isolation Thoery  After the Burial
-------------------------------------------------------------------------------
Tabbed by: Noah Hickman
Email: noah.hickman@yahoo.com

Tuning: Bb standard
Trent
e|---------------------------------------------------------------------------|
B|---------------------------------------------------------------------------|
G|---------------------------------------------------------------------------|
D|---------------------------------------------------------------------------|
A|------------7---5---8----------------------7---5---8-----------------------|
E|-0-000-000----0---0---0-1-0-3~--0-000-000----0---0---0-1-0-3~--------------|
B|---------------------------------------------------------------------------|
Justin
e|---------------------------------------------------------------------------|
B|---------------------------------------------------------------------------|
G|---------------------------------------------------------------------------|
D|---------------------------------------------------------------------------|
A|-2-222-222----------------------2-222-222----------------------------------|
E|-0-000-000----------------------0-000-000----------------------------------|
B|---------------------------------------------------------------------------|

Trent
e|---------------------------------------------------------------------------|
B|---------------------------------------------------------------------------|
G|---------------------------------------------------------------------------|
D|---------------------------------------------------------------------------|
A|-----------7---5---8----------------------7---5---8------------------------|
E|-0-000-000---0---0---0-1-0-3~---0-000-000---0---0---0-1-0-3~---------------|
B|---------------------------------------------------------------------------|
Justin
e|---------------------------------------------------------------------------|
B|---------------------------------------------------------------------------|
G|---------------------------------------------------------------------------|
D|---------------------------------------------------------------------------|
A|-2-222-222--------------------------------10-9--12------------------------|
E|-0-000-000----------------------0-000-000---0---0---0-5-0-7~---------------|
B|---------------------------------------------------------------------------|
THEN REPEAT THE MELODY 8 times on both guitars
Trent
e|---------------------------------------------------------------------------|
B|---------------------------------------------------------------------------|
G|---------------------------------------------------------------------------|
D|---------------------------------------------------------------------------|
A|-----------------------------9-----9-----9-----9~--------------------------|
E|-3----------5----------7---7-----7-----7-----7-----------------------------|
B|-1-1-1-1111-3-3-3-3333-5-5-----5-----5-----5-------------------------------|
Justin
e|---------------------------------------------------------------------------|
B|---------------------------------------------------------------------------|
G|---------------------------------------------------------------------------|
D|---------------------------------------------------------------------------|
A|-----------------------------14----14----14----14~-------------------------|
E|-3----------5----------7---12----12----12----12----------------------------|
B|-1-1-1-1111-3-3-3-3333-5-10----10----10----10------------------------------|






Trent						LAST TIME
e|-------------------------------------------|-------------------------------|
B|-------------------------------------------|-------------------------------|
G|-------------------------------------------|-------------------------------|
D|-------------------------------------------|-------------------------------|
A|-------------------------------------------|-------------------------------|
E|-3----------5----------10\-----------------|-------------------------------|
B|-1-1-1-1111-3-3-3-3333-12\0-00000-0-0000---|-0-00000-0-0000-0-0000-0-0000-0|
Justin
e|-------------------------------------------|-------------------------------|
B|-------------------------------------------|-------------------------------|
G|-------------------------------------------|-------------------------------|
D|-------------------------------------------|-------------------------------|
A|-------------------------------------------|-------------------------------|
E|-3----------5----------10\-----------------|-------------------------------|
B|-1-1-1-1111-3-3-3-3333-12\0-00000-0-0000---|-0-00000-0-0000-0-0000-0-0000-0|
[ Tab from: https://www.guitartabs.cc/tabs/a/after_the_burial/isolation_theory_tab.html ]
WOAH!!!!
Trent
e|---------------------------------------------------------------------------|
B|---------------------------------------------------------------------------|
G|---------------------------------------------------------------------------|
D|---------------------------------------------------------------------------|
A|-----------7---5---8--------------------7---5---8--------------------------|
E|-0-000-000---0---0---0-1-0-3~-0-000-000---0---0---0-1-0-3~-----------------|
B|---------------------------------------------------------------------------|
Justin
e|---------------------------------------------------------------------------|
B|---------------------------------------------------------------------------|
G|---------------------------------------------------------------------------|
D|---------------------------------------------------------------------------|
A|-----------7---5---8--------------------7---5---8--------------------------|
E|-0-000-000---0---0---0-1-0-3~-0-000-000---0---0---0-1-0-3~-----------------|
B|---------------------------------------------------------------------------|

Trent
e|---------------------------------------------------------------------------|
B|---------------------------------------------------------------------------|
G|---------------------------------------------------------------------------|
D|---------------------------------------------------------------------------|
A|-----------7---5---8--------------------7---5---8--------------------------|
E|-0-000-000---0---0---0-1-0-3~-0-000-000---0---0---0-1-0-3~-----------------|
B|---------------------------------------------------------------------------|
Justin
e|---------------------------------------------------------------------------|
B|---------------------------------------------------------------------------|
G|---------------------------------------------------------------------------|
D|---------------------------------------------------------------------------|
A|-----------7---5---8--------------------10--9--12--------------------------|
E|-0-000-000---0---0---0-1-0-3~-0-000-000---0---0---0-5-0-7~-----------------|
B|---------------------------------------------------------------------------|



Trent
e|---------------------------------------------------------------------------|
B|---------------------------------------------------------------------------|
G|---------------------------------------------------------------------------|
D|---------------------------------------------------------------------------|
A|-----------------------------9-----9-----9-----9~--------------------------|
E|-3----------5----------7---7-----7-----7-----7-----------------------------|
B|-1-1-1-1111-3-3-3-3333-5-5-----5-----5-----5-------------------------------|
Justin
e|---------------------------------------------------------------------------|
B|---------------------------------------------------------------------------|
G|16-14-13--14-13------------------------------------------------------------|
D|--------16------14-12-14\--------------------------------------------------|
A|-----------------------------14----14----14----14~-------------------------|
E|---------------------------12----12----12----12----------------------------|
B|-------------------------10----10----10----10------------------------------|

Trent						LAST TIME
e|-------------------------------------------|-------------------------------|
B|-------------------------------------------|-------------------------------|
G|-------------------------------------------|-------------------------------|
D|-------------------------------------------|-------------------------------|
A|-------------------------------------------|-------------------------------|
E|-3----------5----------10\-----------------|-------------------------------|
B|-1-1-1-1111-3-3-3-3333-12\0-00000-0-0000---|-0-00000-0-0000-0-0000-0-0000-0|


e|-------------------------------------------|-------------------------------|
B|-------------------------------------------|-------------------------------|
G|16-14-13--14-13----------------------------|-------------------------------|
D|--------16------14-12-14\------------------|-------------------------------|
A|-------------------------------------------|-------------------------------|
E|-------------------------------------------|-------------------------------|
B|--------------------------0-00000-0-0000---|-------------------------------|

Trent
e|---------------------------------------------------------------------------|
B|---------------------------------------------------------------------------|
G|---------------------------------------------------------------------------|
D|---------------------------------------------------------------------------|
A|---------------------------------------------------------------------------|
E|---------------------------------------------------------------------------|
B|-000-000---000-000-000--000-000-000--000-000-000000-(000)-000-------------|
Justin
e|---------------------------------------------------------------------------|
B|---------------------------------------------------------------------------|
G|---------------------------------------------------------------------------|
D|---------------------------------------------------------------------------|
A|---------------------------------------------------------------------------|
E|---------------------------------------------------------------------------|
B|-000-000---000-000-000--000-000-000--000-000-000000--000-(000)-----------|



Trent
e|---------------------------------------------------------------------------|
B|---------------------------------------------------------------------------|
G|---------------------------------------------------------------------------|
D|---------------------------------------------------------------------------|
A|---------------------------------------------------------------------------|
E|---------------------------------------------------------------------------|
B|-000-000---000-000-000-----------------------------------------------------|
Justin
e|---------------------------------------------------------------------------|
B|---------------------------------------------------------------------------|
G|---------------------------------------------------------------------------|
D|---------------------------------------------------------------------------|
A|---------------------------------------------------------------------------|
E|---------------------------------------------------------------------------|
B|-000-000---000-000-000-----------------------------------------------------|
END
| /  slide up
| \  slide down
| h  hammer-on
| p  pull-off
| ~  vibrato
| +  harmonic
| x  Mute note
===============================================================================