Afi - Girls Not Grey Chords & Tabs

 

Girls Not Grey Chords & Tabs

Afi Chords & Tabs

Version: 3 Type: Bass Tab

Girls Not Grey Bass Tab

   
Artist: A.F.I. (A Fire Inside)
Song: Girls Not Grey
Tuning: Standard
Time: 3:14

* Means, Hold Note

Intro
G|--------------------------------------------------|
D|--------------------------------------------------|
A|-7-7-7--------------------------------------------|
E|-------7-7-7-7-7--2-2-2-4-4-4-4-4-----------------|

|---------------------------------------------------|
|---------------------------------------------------|
|-7-7-7---------------------------------------------|
|-------7-7-7-7-7--2-2-2-4-4-4-4-4------------------|

|---------------------------------------------------|
|---------------------------------------------------|
|-7-7-7---------------------------------------------|
|-------7-7-7-7-7--2-2-2-4-4-4-4-4------------------|

|---------------------------------------------------|
|---------------------------------------------------|
|-7-7-7---------------------------------------------|
|-------7-7-7--7-6-2-4------------------------------|

|---------------------------------------------------|
|---------------------------------------------------|
|-7-7-7-9-9-9-9-9--7-7-7-6-6-6-6-6------------------|
|---------------------------------------------------|

|---------------------------------------------------|
|---------------------------------------------------|
|-7-7-7-9-9-9-9-9--7-7-7-6-6-6-6-6------------------|
|---------------------------------------------------|

Verse 1
[0.25]
Ill lay me down tonight
|---------------------------------------------------|
|---------------------------------------------------|
|-7-7-7-9-9-9-9-9--7-7-7-6-6-6-6-6------------------|
|---------------------------------------------------|

Much further down
|---------------------------------------------------|
|---------------------------------------------------|
|-7-7-7-9-9-9-9-9--7-7-7-6-6-6-6-6------------------|
|---------------------------------------------------|

Swim in the calm tonight
|---------------------------------------------------|
|---------------------------------------------------|
|-7-7-7-9-9-9-9-9--7-7-7-6-6-6-6-6------------------|
|---------------------------------------------------|

This art does drown......
|---------------------------------------------------|
|---------------------------------------------------|
|-7-7-7-9-9-9-9-9--7-7-7-6-6-6-6-6*-----------------|
|---------------------------------------------------|

Chorus
(What Follows) me as the whitest lace of light
|---------------------------------------------------|
|---------------------------------------------------|
|-7-7-7---------------------------------------------|
|-------7-7-7-7-7--2-2-2-4-4-4-4-4------------------|

(Will Swallow Whole) just begs to be imbrued?
|---------------------------------------------------|
|---------------------------------------------------|
|-7-7-7---------------------------------------------|
|-------7-7-7-7-7--2-2-2-4-4-4-4-4------------------|

(What Follows) has led me to this place
|---------------------------------------------------|
|---------------------------------------------------|
|-7-7-7---------------------------------------------|
|-------7-7-7-7-7--2-2-2-4-4-4-4-4------------------|

Where I belong, with all erased......
|---------------------------------------------------|
|---------------------------------------------------|
|-7-7-7---------------------------------------------|
|-------7-7-7-7-7--2-2-2-4-4-4-4-4------------------|

(What Follows)
|---------------------------------------------------|
|---------------------------------------------------|
|-7-7-7-9-9-9-9-9--7-7-7-6-6-6-6-6------------------|
|---------------------------------------------------|

|---------------------------------------------------|
|---------------------------------------------------|
|-7-7-7-9-9-9-9-9--7-7-7-6-6-6-6-6------------------|
|---------------------------------------------------|

Verse 2
All insects sing tonight
|---------------------------------------------------|
|---------------------------------------------------|
|-7-7-7-9-9-9-9-9--7-7-7-6-6-6-6-6------------------|
|---------------------------------------------------|

The coldest sound
|---------------------------------------------------|
|---------------------------------------------------|
|-7-7-7-9-9-9-9-9--7-7-7-6-6-6-6-6------------------|
|---------------------------------------------------|
[ Tab from: https://www.guitartabs.cc/tabs/a/afi/girls_not_grey_btab_ver_3.html ]
Id send Gods grace tonight
|---------------------------------------------------|
|---------------------------------------------------|
|-7-7-7-9-9-9-9-9--7-7-7-6-6-6-6-6------------------|
|---------------------------------------------------|

Could it be found......
|---------------------------------------------------|
|---------------------------------------------------|
|-7-7-7-9-9-9-9-9--7-7-7-6-6-6-6-6--6-6-6-6-6-6-6---|
|---------------------------------------------------|

Chorus
(What Follows) me as the whitest lace of light
|---------------------------------------------------|
|---------------------------------------------------|
|-7-7-7---------------------------------------------|
|-------7-7-7-7-7--2-2-2-4-4-4-4-4------------------|

(Will Swallow Whole) just begs to be imbrued?
|---------------------------------------------------|
|---------------------------------------------------|
|-7-7-7---------------------------------------------|
|-------7-7-7-7-7--2-2-2-4-4-4-4-4------------------|

(What Follows) has led me to this place
|---------------------------------------------------|
|---------------------------------------------------|
|-7-7-7---------------------------------------------|
|-------7-7-7-7-7--2-2-2-4-4-4-4-4------------------|

Where I belong, with all erased......
|---------------------------------------------------|
|---------------------------------------------------|
|-7-7-7---------------------------------------------|
|-------7-7-7-7-7--2-2-2-4-4-4-4-4------------------|

Verse 3
I'll lay me down tonight
|---------------------------------------------------|
|---------------------------------------------------|
|-7-7-7-9-9-9-9-9--7-7-7-6-6-6-6-6------------------|
|---------------------------------------------------|

Much further down
|---------------------------------------------------|
|---------------------------------------------------|
|-7-7-7-9-9-9-9-9--7-7-7-6-6-6-6-6------------------|
|---------------------------------------------------|

Watch stars go out tonight
|---------------------------------------------------|
|---------------------------------------------------|
|-7-7-7-9-9-9-9-9--7-7-7-6-6-6-6-6------------------|
|---------------------------------------------------|

On sinking ground......
|---------------------------------------------------|
|---------------------------------------------------|
|-7-7-7-9-9-9-9-9--7-7-7-6-6-6-6-6------------------|
|---------------------------------------------------|

Bridge: No Bass-line
Start [2.00]
Singing [2.13] Ill lay me down; [2.25] Ill lay me down......
End [2.34]

Chorus
(What Follows) me as the whitest lace of light
|---------------------------------------------------|
|---------------------------------------------------|
|-7-7-7-9-9-9-9-9--7-7-7-6-6-6-6-6------------------|
|---------------------------------------------------|

(Will Swallow Whole) just begs to be imbrued?
|----------------------------------------------------|
|----------------------------------------------------|
|-7-7-7-9-9-9-9-9--7-7-7-6-6-6-6-6-------------------|
|----------------------------------------------------|

(What Follows) has led me to this place
|----------------------------------------------------|
|----------------------------------------------------|
|-7-7-7-9-9-9-9-9--7-7-7-6-6-6-6-6-------------------|
|----------------------------------------------------|

Where I belong, with all erased......
|----------------------------------------------------|
|----------------------------------------------------|
|-7-7-7-9-9-9-9-9--7-7-7-6-6-6-6-6--6-6-6-6-6-6-6----|
|----------------------------------------------------|

Outro
(What Follows)
|----------------------------------------------------|
|----------------------------------------------------|
|-7-7-7----------------------------------------------|
|-------7-7-7-7-7--2-2-2-4-4-4-4-4-------------------|

(Will Swallow Whole)
|----------------------------------------------------|
|----------------------------------------------------|
|-7-7-7----------------------------------------------|
|-------7-7-7-7-7--2-2-2-4-4-4-4-4-------------------|

(What Follows)
|----------------------------------------------------|
|----------------------------------------------------|
|-7-7-7----------------------------------------------|
|-------7-7-7-7-7--2-2-2-4-4-4-4-4-------------------|

(Will Swallow Whole)
|----------------------------------------------------|
|----------------------------------------------------|
|-7-7-7----------------------------------------------|
|-------7-7-7--7-6-2-4-------------------------------|