Acid Bath - Venus Blue Chords & Tabs

 

Venus Blue Chords & Tabs

Acid Bath Chords & Tabs

Version: 1 Type: Bass Tab

Venus Blue Bass Tab

Guitar Intro 2 measures then start

Intro/Verse
G ---------------------------------------------------|
D 3-44444-3----3------------------------------------|
A ---------------4----44/6-6-6-6/8-888888-----------|
D ---------------------------------------------------|
[ Tab from: https://www.guitartabs.cc/tabs/a/acid_bath/venus_blue_btab.html ]
Prechorus  (Intro/Verse + distortion)Chorus
G ----------------------------------------------------|
D ---------------------------------------------------|
A  ---------------------------------------------------|
D  ----888888----3--3--3----6--6--6-----8--8---8------|

Bridge
G ----------------------------------------------------|
D ----------------------------------------------------|
A ----------------------------------------------------|
D ----1-3333---1-4444---1-3333---2-6666---------------|

Fill after Chorus  (hold for full measure)
A ----------5----------------------------------------