Acid Bath - Bones Of Baby Dolls Chords & Tabs

 

Bones Of Baby Dolls Chords & Tabs

Acid Bath Chords & Tabs

Version: 5 Type: Tab

Bones Of Baby Dolls Tab

   
Bones of Baby Dolls
By Acid Bath
Tuning:   Step Down (Eb, Ab, C#, F#, Bb, Eb)
Tabbed by Daniel Kitts (dEKaY)
dekay505@yahoo.com
08-25-2008

Intro
  Am            G#5    E      F#5    F5
------------------------------------------------------------------| repeat 2x
----1------1------0-----------------------------------------------|
--2---2--2---2--1---1----1------2------1------1------1------1-----|
-----------------------2---2--4---4--3---3--3---3--3---3--3---0---|
------------------------------------------------------------------|
------------------------------------------------------------------|


Flower         girls   play   lover
Grave     games  in    the   court -  yard
  Am            G#5    E      F#5    F5
------------------------------------------------------------------| repeat 2x
----1------1------0-----------------------------------------------|
--2---2--2---2--1---1----1------2------1------1------1------1-----|
-----------------------2---2--4---4--3---3--3---3--3---3--3---0---|
------------------------------------------------------------------|
------------------------------------------------------------------|


    I          heard      her
    F#	       A5	  C#	          Am
----------------------------------------------------|
--------------------------------------------1-------|
-------2---------0-----------------------2-----2----|
----4-----4---2-----2---------2---------------------|
---------------------------4-----0------------------|
----------------------------------------------------|


   Screaming    like a     radio
    F#5         G#5        Am        F#5                   Am        G#5
----------------------------------------------------------------------------|
----------------------------------------------------------------------------|
------2-----------4---------6-----------2---------2---------5----------4----|
--4------4----6------6---7-----7----4------4---4-----4---7----7----6------6-|
----------------------------------------------------------------------------|
----------------------------------------------------------------------------|


-----------------------------------------| [repeat 3 more times]
-----------------------------------------|
-----2--------2---------5---------4------|
--4-----4--4-----4---7-----7---6-----6---|
-----------------------------------------|
-----------------------------------------|

end intro

                                REPEAT INTRO

[ Tab from: https://www.guitartabs.cc/tabs/a/acid_bath/bones_of_baby_dolls_tab_ver_5.html ]
VERSE
  F#m             D#m           F#m          C#5
-----------------------------------------------------------------|
-----------2------------3-------------2--------------------------|
---------2---2--------4---4---------2---2---------6--------------|
------4--------4----4-------4-----4-------2-----6---6---6--------|
---4--------------2------------4-------------4--------4----------|
-----------------------------------------------------------------|

    Mary         Lou          left    marks  on  you
    She    just  screams  at   the   walls
   The kite string pops I'm swallowed whole by the sky
    We smoke    the   bones    of  baby dolls

 F#m             D#m           F#m          C#5
-----------------------------------------------------------------| repeat 4x]
-----------2------------3-------------2--------------------------|
---------2---2--------4---4---------2---2---------6--------------|
------4--------4----4-------4-----4-------2-----6---6---6--------|
---4--------------2------------4-------------4--------4----------|
-----------------------------------------------------------------|


 Ahhh ah   Yeahh  ahhh   Yeahh ahh yeah   ahhhh
  F#m             D#m           F#m          C#5

[Same chord pattern for the next verses]

Techno liquid screaming meat
Heavens cold beneath my feet
Cyber love, the anti man
We make love, ohh ohh because we can

Virgins play where the bayou's blue
Barefoot eating mushroom stew
Work for pain and pain for freedom
Fuck them all, cause we don't need 'em

OUTRO  RIFF
   Gb5              A          E
-----------------------------------------------------|
-----------------------------------------------------|
-----------------------------------------------------|
----------4-------------2----------------------------|   REPEAT
-------4-----4------0-----0------2-------------------|
----2-----------2--------------0-----0---3(bend)-----|
                                           full

Every  -    things  gone    dry
The  bottle glass scrapes across the pavement
    Gb5              A          E
-----------------------------------------------------|
-----------------------------------------------------|
-----------------------------------------------------|
----------4-------------2----------------------------|    REPEAT
-------4-----4------0-----0------2-------------------|
----2-----------2--------------0-----0---3(bend)-----|
                                           full

                                                  FADE OUT


PLAY ALONG WITH THE MUSIC!!
http://www.youtube.com/watch?v=gkkblPdq0ik