Aaron Shust - My Savior My God Chords & Tabs

 

My Savior My God Chords & Tabs

Aaron Shust Chords & Tabs

Version: 1 Type: Bass Tab

My Savior My God Bass Tab

My Savior My God Bass Tab

Intro
G|--------------------------------------------------------|
D|--------------------------------------------------------|
A|-2-2---2-2---2-2---2-2--1-------------------------------|
E|--------------------------4-4---4-4---4-4---4-4--3------|

G|--------------------------------------------------------|
D|--------------------------------------------------------|
A|------------------------1--2-2---2-2---2-2---2----------|
E|-2-2---2-2---2-2---2-2----------------------------------|

Verse
G|--------------------------------------------------------|
D|--------------------------------------------------------|
A|-2-2---2-2---2-2---2-2--1-------------------------------|
E|--------------------------4-4---4-4---4-4---4-4--3------|
[ Tab from: https://www.guitartabs.cc/tabs/a/aaron_shust/my_savior_my_god_btab.html ]
G|--------------------------------------------------------|
D|--------------------------------------------------------|
A|------------------------1--2-2---2-2---2-2---2x---------|
E|-2-2---2-2---2-2---2-2----------------------------------|

Pre-Chorus
G|--------------------------------------------------------|
D|--------------------------------------------------------|
A|--------------------------2-2---2-2---2-2---2-2---------|
E|-0-0---0-0---0-0---0-0--4-------------------------------|

G|--------------------------------------------------------|
D|--------------------------------------------------------|
A|------------------------1--2-2---2-2---2x---------------|
E|-2-2---2-2---2-2---2-2----------------------------------|

Chorus
G|------------------------------------------------------|
D|------------------------------------------------------|2X
A|---------------------2--2-2---------------------------|
E|-12/4--4-4--0-0-0-0----------2--2-2-------------------|

Interlude same as verse

X  Break 
/ - Slide down