A Day To Remember - The Downfall Of Us All Chords & Tabs

 

The Downfall Of Us All Chords & Tabs

A Day To Remember Chords & Tabs

Version: 5 Type: Bass Tab

The Downfall Of Us All Bass Tab

   
5 stringed version

INTRO:
G|---------------------------------------------------|
D|---------------------------------------------------|x2                     
A|---------------------------------------------------|   
E|--------------------------55555555-55-55-----------|                        
B|11111111-11-11111-11-11-----------------66-66-66--|  


                     |--------| 
(2nd time, end with) |--------|
                     |--------|
                     |-66660~-|

VERSE:
G|----------------------------------------------|
D|----------------------------------------------|
A|----------------------------------------------|
E|--5~-----------------------5~-----------------|
B|---------6~-------1~---------------6~---------|

PRE-CHORUS:
G|-------------------------------------------------------------|
D|-------------------------------------------------------------|
A|------77-------------------------------------77--------------|
E|-5555----------888\--------------------55555-----------------|
B|-----------6666-----11111111113333333------------6-66666666--|
[ Tab from: https://www.guitartabs.cc/tabs/a/a_day_to_remember/the_downfall_of_us_all_btab_ver_5.html ]
CHORUS:
G|-------------------------------------|
D|-------------------------------------|x2                       
A|-------------------------------------|  
E|----------11--333--------------------|                        
B|-111113311--11---111113333/6666666--|                      
 
                      |------------|                 
                      |------------|
(2nd time, end with)  |------------|
                      |-3333333/66-| 

INTRO

VERSE 2:
G|----------------------------------------------|
D|----------------------------------------------|
A|----------------------------------------------|
E|--5~-----------------------555-555------------|
B|---------6~-----11---111-------------666-666--|

PRE-CHORUS

CHORUS

BRIDGE

G|--------------------------------------------|
D|--------------------------------------------|x2
A|-------32~-------32~--------23~-------323---|
E|----------------------11111------3333-------|
B|-11111------1111----------------------------|

G|--------------------------|
D|--------------------------|
A|--------------------------|
E|--------------------------|
B|-11111-11111-66666-88-888-|


BREAK

CHORUS

OUTRO:
G|--------------------------------------------------------|
D|--------------------------------------------------------|x2
A|--------------------------------------------------------|
E|--------------------------------------------------------|
B|-1111111-11-11-111-11-11---11111111-11-11-11-11-1-11-11-|