A Brand - Hammerhead Chords & Tabs

 

Hammerhead Chords & Tabs

A Brand Chords & Tabs

Version: 1 Type: Tab

Hammerhead Tab

Hammerhaed tabs- A brand

(speel mee met de clip op: http://www.abrand.be/2006/assets/media_video_hammerhead.mov )

intro: (x8)         outro intro (x8)

e-12---------------|----------17-----------19--|
b----------15------|------20----------20-------|
g----14-16----16---|-1921--21---19-21--21-----|
d------------------|---------------------------|
a------------------|---------------------------|
e------------------|---------------------------|


verse:(x4)

e---------------------------|
b---------------------------|
g---------------------------|
d-x10-x-10x-7---7---------|
a-x10-x-10-x-7---7---------|
e-x-8--x-8--x-5-x-5-x-0-x-0-|

outro verse:
                x2                        x2
e-----------------|-10-12-10-12-10-12-14-15-|
b--3-5-3-5-3-5-7-8|-------------------------|
g-----------------|-------------------------|
d-----------------|-------------------------|
a-----------------|-------------------------|
e-----------------|-------------------------|

refrein: (x8)                              (x8)
[ Tab from: https://www.guitartabs.cc/tabs/a/a_brand/hammerhead_tab.html ]
e-12---------------|----------17-----------19--|
b----------15------|------20----------20-------|
g----14-16----16---|-1921--21---19-21--21-----|
d------------------|---------------------------|
a------------------|---------------------------|
e------------------|---------------------------|


verse:eerst een basdrum)
                        (x2)
e---------------------------|
b---------------------------|
g---------------------------|
d-x10-x-10x-7---7---------|
a-x10-x-10-x-7---7---------|
e-x-8--x-8--x-5-x-5-x-0-x-0-|

outro verse:
                x2                        x2
e-----------------|-10-12-10-12-10-12-14-15-|
b--3-5-3-5-3-5-7-8|-------------------------|
g-----------------|-------------------------|
d-----------------|-------------------------|
a-----------------|-------------------------|
e-----------------|-------------------------|

refrein: (x16)                            (x13)

e-12---------------|----------17-----------19--|
b----------15------|------20----------20-------|
g----14-16----16---|-1921--21---19-21--21-----|
d------------------|---------------------------|
a------------------|---------------------------|
e------------------|---------------------------|