7 Year Bitch - Hip Like Junk Chords & Tabs

 

Hip Like Junk Chords & Tabs

7 Year Bitch Chords & Tabs

Version: 1 Type: Bass Tab

Hip Like Junk Bass Tab

   
HIP LIKE JUNK Intro/Verse

|------------------------|
|------------------------|
|------------------------|
|-0-0--5-7-50--3-3-3----|

Bridge A

                          2nd x only
                                 (hold)
|-----------------------|----------------------|-----------------------|---------|
|-----------------------|----------------------|-----------------------|---------|
|-------------5---------|-------------5--------|-------------5---------|-7-------|
|-0-0--7-5-7----7-5-7--|-0-0--7-5-7-----5-7-5-|-0-0--7-5-7------7-5-7|-----------|
[ Tab from: https://www.guitartabs.cc/tabs/0-9/7_year_bitch/hip_like_junk_btab.html ]
Bridge B	 	2X					3X			   4X
|---------------||---------------------||----------------|
|--------------*||---------------------*||-----------*---|
|-7------------*||-7---------------5---*||-7---------*---|
|----5-7-5------||----5-7-5--35-7----||----5-7-5--------|

Bridge C				6X
|-----------------------------||-------------|----------------------|
|----------------------------*||-------------|----------------------|
|----------------------------*||-------------|------------------5---|
|-0--0-0-0--0-0-0-0-0-0-0-0--||-0--3-5-3-5-|-0-03-5-7-5-7----------|

							3X
Last time only
|----------------|----------------||-------------------------------|
|----------------|---------------*||-------------------------------|
|----------------|---------------*||-------------------------------|
|-0-3-5-3-5------|-0-0--3-5-7-3---||-0-3-5-3-5555555555555555------|


Verse 17x
Bridge-A 1x
Verse 14x
Bridge-A 1x
Bridge-B 1x
Bridge-C 1x
Verse 14x