7 Seconds - Were Gonna Fight Chords & Tabs

 

Were Gonna Fight Chords & Tabs

7 Seconds Chords & Tabs

Version: 1 Type: Bass Tab

Were Gonna Fight Bass Tab

   
---------------------------------------------------------------------------
                         7seconds  We're gonna fight
 ---------------------------------------------------------------------------

Tabbed by: Luke Des

I thing it right and it sounds like song. :)

Intro
G|---------------------------------------|
D|---------------------------------------|
A|---------------------------------------|
E|-4-4-4-4-4-4-4-4-7-7-7-7-7-7-7-7-------|

Verse
G|---------------------------------------|
D|---------------------------------------|
A|---------------------------------------|
E|-4-4-4-4-4-4-4-4-7-7-7-7-7-7-7-7-------|
[ Tab from: https://www.guitartabs.cc/tabs/0-9/7_seconds/were_gonna_fight_btab.html ]
G|---------------------------------------|
D|---------------------------------------|
A|-----------------------------7---------|
E|-4-4-4-4-4-4-4-4-7-7-7-7-7-7--7-7------|

Chorus
G|---------------------------------------|
D|---------------------------------------|
A|-4-4-4-4---------7-7-7-7---------------|
E|---------4-4-4-4---------7-7-7-7-------|

Solo
G|---------------------------------------|
D|---------------------------------------|
A|---------------------------------------|
E|-4-4-4-4-4-4-4-4-7-7-7-7-7-7-7-7-------|

outro
G|---------------------------------|
D|---------------------------------|
A|---------------------------------|
E|-4-4-4-4-4-4-4-4-7-7-7-7-7-7-7-7-|

G|---------------------------------|
D|---------------------------------|
A|-7-7-7-7-7-7-7-7-4-4-4-4-4-4-4-4-|
E|---------------------------------|

just listen to song to hear the changes and the number
of times that you play each part