3 Feet Smaller - Christmas Tree Chords & Tabs

 

Christmas Tree Chords & Tabs

3 Feet Smaller Chords & Tabs

Version: 1 Type: Chords

Christmas Tree Chords

   
-----------------------------------------------------------------------------
			    Christmas Tree - 3 Feet Smaller
-----------------------------------------------------------------------------
Tabbed by: madoxx
Email: chris_3617@gmx.net
These are the tabs reqested by Nici *gg* I tabbed it out ear but I'm pretty sure it's about right.
pls rate+comment it!
For the strumming pattern watch my vid: 
http://de.youtube.com/watch?v=GthC-wEb2ls

Tuning: Standard

Chords used
e|--3----2----3----3----3----3----------|
B|--3----3----3----3----3----3----------|
G|--0----2----0----0----2----2----------|
D|--0----0----2----2---------0----------|
A|--2---------2----3---------0----------|
E|--3------------------------2----------|
    G    D    Em   C2  Dsus  Dsus2
[ Tab from: https://www.guitartabs.cc/tabs/0-9/3_feet_smaller/christmas_tree_crd.html ]
Intro
e|--3----2----3----3---------------------------------------------------|
B|--3----3----3----3---------------------------------------------------|
G|--0----2----0----0---------------------------------------------------|
D|--0----0----2----2---------------------------------------------------|
A|--2---------2----3---------------------------------------------------|
E|--3------------------------------------------------------------------|
    G    D    Em   C2
             
          G   D                 Em                C2
Im so happy, I cant expect it were gonna get a new christmas tree 
G            D            Em     C2
cuz he s my one and only looove.
G                     D              Em        C2        G
Were gonna spend the whole december together, together, cause hes so
D             Em      D     
beautiful and looking good
C2                    Dsus         Em        Dsus2        Em
and its happend once again Im in love with my christmas tree.
C2                               Dsus (1 Stroke)
Maybe its a strange releationship

(break)
but Im happy with it

Intro Chords (G,D,Em,C2) x 3

G                          D                 Em        C2
but theres one thing that I should mention. Sex isnt so good with him.
G            D           Em      C2
Hes picking me all over my body
G                 D                Em      C2
Now Its june and christmas is gone and my christmas tree too.
G           D         Em    D
What should I do now? OH NO
C2                    Dsus         Em        Dsus2        Em
and its happend once again Im in love with my christmas tree.

C2                                Dsus (1 Stroke)
and maybe its a strange releationship
(break)
but Im happy with it

Intro Chords (G,D,Em,C2) x 3

(continue..)
Em                      C2                        G        D...G
 Its a so fucking long time till he will be back agai-ian
Em (022000)             C2(02303)                    D    Dsus
 Its a so fucking long time till he will be back aaa-gai-iaaan
C2                    Dsus         Em        Dsus2        Em
and its happend once again Im in love with my christmas tree.
C2                                Dsus
and maybe its a strange releationship
(continue..Dsus)
but Im happy with it
Intro Chords (G,D,Em,C2) x 3                     End on G
Happy with it. But I'm happy with it Im so happy with it.