311 - Amber Chords & Tabs

 

Amber Chords & Tabs

311 Chords & Tabs

Version: 3 Type: Bass Tab

Amber Bass Tab

   
Amber by 311 
Tabbed by b-rendan999
This one is pretty much the same as b-rendan999ís tab just no 5-string needed
Tuning:  D A D G

Riff 1:
G:----------------------------------------|
D:----------------------------------------|
A:3-3-3-3-3-3-0-0-0-----------------------|   x8
D:-----------------2-2-2-2-2-2--2-5-2-----|

Riff 2:
G:-----------------------------------------|
D:-----------------------------------------|
A:---------------------------3-5-------3-5-|  x2
D:0-0-0-0-0-0-0-0-0-0-5-5-5-5-5---5-5-5-5--|

Riff 1:
G:----------------------------------------|
D:----------------------------------------|
A:3-3-3-3-3-3-0-0-0-----------------------|   x6
D:-----------------2-2-2-2-2-2--2-5-2-----|

Riff 2:
G:-----------------------------------------|
D:-----------------------------------------|
A:---------------------------3-5-------3-5-|  x2
D:0-0-0-0-0-0-0-0-0-0-5-5-5-5-5---5-5-5-5--|

Riff 1:
G:----------------------------------------|
D:----------------------------------------|
A:3-3-3-3-3-3-0-0-0-----------------------|   x2
D:-----------------2-2-2-2-2-2--2-5-2-----|

Short Pause 
[ Tab from: https://www.guitartabs.cc/tabs/0-9/311/amber_btab_ver_3.html ]
Bridge Part 1:
G:----------------------------------------|
D:----------------------------------------|
A:0-0-0-0-0-0---0--------------2----------|  x2
D:------------2---2-2-2-2-2-2---2---------|

Bridge Part 2:
G:----------------------------------------|
D:----------------------------------------|
A:------------3---------------2-----------|
D:3-3-3-3-3-3---3-2-2-2-2-2-2---2---------|  x2

Fill:
G:----------------------------------------|
D:----------------------------------------|
A:----77777-------------------------------|  x1
D:5-//------------------------------------|

Riff 1:
G:----------------------------------------|
D:----------------------------------------|
A:3-3-3-3-3-3-0-0-0-----------------------|   x2
D:-----------------2-2-2-2-2-2--2-5-2-----|

Riff 2:
G:-----------------------------------------|
D:-----------------------------------------|
A:---------------------------3-5-------3-5-|  x2
D:0-0-0-0-0-0-0-0-0-0-5-5-5-5-5---5-5-5-5--|

Riff 1:
G:----------------------------------------|
D:----------------------------------------|
A:3-3-3-3-3-3-0-0-0-----------------------|   x2
D:-----------------2-2-2-2-2-2--2-5-2-----|

that's it