30 Seconds To Mars - Attack Chords & Tabs

 

Attack Chords & Tabs

30 Seconds To Mars Chords & Tabs

Version: 2 Type: Bass Tab

Attack Bass Tab

   
-------------------------------------------------------------------------------
			     ATTACK  30 SECONDS TO MARS
-------------------------------------------------------------------------------

Tabbed By : xunknownx(:

Tuning: Standard

Verse 1
G|------------------------------|
D|------------------------------|
A|-11[x16]---10[x16]---8[x32]---|
E|------------------------------|

G|-------------------------------|
D|-------------------------------|
A|11[x16]---10[x16]---8[x16]-----|
E|-------------------------------|

Chorus
G|---------------------------------------------------------------------------|
D|----------666-555-33----------666-555-33-----------------------------------|
A|-44444444------------66666666------------8888888888888888------------------|
E|----------------------------------------------------------8888888888888888-| 

G|---------------------------------------------------------------------------|
D|----------666-555-33----------666-555-33-----------------------------------|
A|-44444444------------66666666------------8888888888888888-15[x16]----------|
E|---------------------------------------------------------------------------| 

Verse 2
G|------------------------------|
D|------------------------------|
A|-11[x16]---10[x16]---8[x16]---|
E|------------------------------|

G|-------------------------------|
D|-------------------------------|
A|11[x16]---10[x16]---8[x16]-----|
E|-------------------------------|
[ Tab from: https://www.guitartabs.cc/tabs/0-9/30_seconds_to_mars/attack_btab_ver_2.html ]
Chorus
G|---------------------------------------------------------------------------|
D|----------666-555-33----------666-555-33-----------------------------------|
A|-44444444------------66666666------------8888888888888888------------------|
E|----------------------------------------------------------8888888888888888-| 

G|---------------------------------------------------------------------------|
D|----------666-555-33----------666-555-33-----------------------------------|
A|-44444444------------66666666------------8888888888888888-15[x16]----------|
E|---------------------------------------------------------------------------| 

Bridge- no bass

Chorus
G|---------------------------------------------------------------------------|
D|----------666-555-33----------666-555-33-----------------------------------|
A|-44444444------------66666666------------8888888888888888------------------|
E|----------------------------------------------------------8888888888888888-| 

G|---------------------------------------------------------------------------|
D|----------666-555-33----------666-555-33-----------------------------------|
A|-44444444------------66666666------------8888888888888888-15[x16]----------|
E|---------------------------------------------------------------------------| 

Outro
G|------------------------------|
D|------------------------------|
A|-11[x16]---10[x16]---8[x32]---|
E|------------------------------|

G|----------------------------|
D|----------------------------|
A|-4[x16]---6[x16]---8[x16]---|
E|----------------------------|






| /  slide up
| \  slide down
| h  hammer-on
| p  pull-off
| ~  vibrato
| +  harmonic
| x  Mute note
===============================================================================
 kinda edited the whole thing. should be 100% accurate now(: rmb to rate and comment