1g3b - Pollor Chords & Tabs

 

Pollor Chords & Tabs

1g3b Chords & Tabs

Version: 1 Type: Tab

Pollor Tab

Pollor by 1G3B  http://www.1g3b.com

Part 1 (Pollor p rydjin..)

e-------------------------------------------------------------------------|
b-------------------------------------------------------------------------|
g--7-x-x-x-x-x-x-x-7-8-7-x-x-x-x-x----------------------------------------|
D--7-x-x-x-x-x-x-x-7-8-7-x-x-x-x-x-3-5-3----------------------------------|
A--5-x-x-x-x-x-x-x-5-6-5-x-x-x-x-x-3-5-3----------------------------------|
E----------------------------------1-3-1----------------------------------|

Part 2 (Tu har pollor..)

e-------------------------------------------------------------------------|
b-------------------------------------------------------------------------|
g--7---7---10-9-8---------------------------------------------------------|
D--7---7---10-9-8---------------------------------------------------------|
A--5---5---8--7-6---------------------------------------------------------|
E-------------------------------------------------------------------------|
[ Tab from: https://www.guitartabs.cc/tabs/0-9/1g3b/pollor_tab.html ]
Part 3 (Graaaaaaaaaaaatuuuuleeeeeeeraaaaaaar)

e-------------------------------------------------------------------------|
b-------------------------------------------------------------------------|
g--7-7-7-7-7-7-7-7-8-8-8-8-9-9-9-9----------------------------------------|
D--7-7-7-7-7-7-7-7-8-8-8-8-9-9-9-9----------------------------------------|
A--5-5-5-5-5-5-5-5-6-6-6-6-7-7-7-7----------------------------------------|
E-------------------------------------------------------------------------|

There's a little part between part 2 and 3 that goes like this:
e-------------------------------------------------------------------------|
b-------------------------------------------------------------------------|
g--7-7-7-7-8-7------------------------------------------------------------|
D--7-7-7-7-8-7------------------------------------------------------------|
A--5-5-5-5-6-5------------------------------------------------------------|
E-------------------------------------------------------------------------|

Play this 2 times..