Zz Top - Pin Cushion Chords & Tabs

 

Pin Cushion Chords & Tabs

Zz Top Chords & Tabs

Version: 1 Type: Tab 0 ratings
1 star 2 stars 3 stars 4 stars 5 stars
comments

Pin Cushion Tab

intro verse riff

E|----------------------|----------------------|
B|----------------------|----------------------|
G|-------------------3--|-------------------5--|
D|--5--5--5----5--5--3--|--5--5--5----5--5--5--|
A|--5--5--5----5--5-----|--5--5--5----5--5-----|
E|--3--3--3----3--3-----|--3--3--3----3--3-----|



  chorus
[ Tab from: http://www.guitartabs.cc/tabs/z/zz_top/pin_cushion_tab.html ]
E|------------------------------|-------------------------|
B|------------------------------|-------------------------|
G|---------------------------5--|-------------------------|
D|------------------------5--5--|----------------------5--|
A|--3--3--3--3------------3--3--|--5--5--5--5--5----------|
E|--1--1--1--1------/5----------|--3--3--3--3--3--6b7-----|


  bridge

E|----------------------------|
B|----------------------------|
G|----------------------------|
D|--x--5--x--3--x--2----x--3--|
A|--x--5--x--3--x--2----x--3--|
E|--x--3--x--1--x--0----x--1--|
Comments