Zz Top - Just Got Paid Chords & Tabs

 

Just Got Paid Chords & Tabs

Zz Top Chords & Tabs

Version: 4 Type: Tab 0 ratings
1 star 2 stars 3 stars 4 stars 5 stars
comments

Just Got Paid Tab

                                ZZ TOP
                            JUST GOT PAID


STANDARD TUNING
EADGBe


---------------------------------------------------------|
---------------------------------------------------------|
---------------------------------------------------------|
--------5----------------2----------5------------2-------|
--5-7-------7---5-7-------------5-7---7--5-7-------------|
------0---0---0------3p0---------------------3p0---------|


-------------------------------|
------8-------------12b--------|
--7-9-7-9-7-9------------------|
--7-9---9-7-9------------------|
-------------------------------|
---------------3p0-------------|

[ Tab from: http://www.guitartabs.cc/tabs/z/zz_top/just_got_paid_tab_ver_4.html ]
-------------------------------|
-------------------------------|
-------------------------------|
--------5---------------2------|x6
--5-7-------7---5-7------------|
------0---0---0-----3p0--------|


just got paid today.....
-------------------------|
-------------------------|
--99--99-99--77-----7----|
--99--99-99--77-----7----|
--77--77-77--55-5h7-5----|
-------------------------|


----------------------------------------------------------------|
----------------------------------------------------------------|
----------------------------------------------------------------|
--------5---------------2--------5---------------2p0h2p0h2p0----|
--5-7-------7---5-7--------5-7-------7---5-7--------------------|
------0---0---0-----3p0--------0---0---0-----3p0----------------|


thats pretty much it
good song
peace
Comments