Zz Top - Im Bad Im Nationwide Chords & Tabs

 

Im Bad Im Nationwide Chords & Tabs

Zz Top Chords & Tabs

Version: 2 Type: Tab 0 ratings
1 star 2 stars 3 stars 4 stars 5 stars
comments

Im Bad Im Nationwide Tab

   
Gtr I (E A D G B E) - 'Billy Gibbons - Lead w/dist'
Gtr II (E A D G B E) - 'Billy Gibbons - Rhythm w/dist'
Gtr III (E A D G B E) - 'Billy Gibbons - Acoustic'
Gtr IV (E A D G B E) - 'Billy Gibbons - Rhythm w/light dist'
Gtr V (E A D G B E) - 'Billy Gibbons - Lead w/dist & sub octave effect'

Intro
  Q=104
 4/4
  Gtr I
                                               ~~~
  E      E      +E   E  S     +S   +E   E      Q
|-----|--8------------------------------------------|
|-----|-11pb13r(11)---------------------------------|
|-----|----------------10b11r(10)-(10)p=8b8.5-------|
|-----|---------------------------------------10p===|
|-----|---------------------------------------------|
|-----|---------------------------------------------|
|
| Gtr II
| S S    E       E   E  E           E   E      E  E
|-----|---------------------------------------------|
|-----|---------------------------------------------|
|-----|---------------------------------------------|
|-----|---------------------------------------------|
|-x-x-|-10------10--12--8----------10--10-----12-10-|
|-x-x-|--8-------8---8--8-----------8---8------8--8-|


   E E  E E  A  E  E E E    E     +E   E  E     +E   E  E   E
|------------------------|--------------------------------------|
|------------------------|-11b13r(11)------------------10-------|
|------------------------|---------------10b12r(10)p=8-10-------|
|--8------8--------------|--------------------------------(10)--|
|----8h10---10s=8p=6h8p6-|--------------------------------------|
|------------------------|--------------------------------------|
|
|  E Q    E     E  Q   E    E      E   E  E      E   E  E   E
|------------------------|--------------------------------------|
|------------------------|--------------------------------------|
|------------------------|--------------------------------------|
|-10-8----8----(8)-8---9-|--------------------------------------|
|-10-8----8----(8)-8---9-|-10-----10--12--------10--10-12p=10---|
|--8-6----6----(6)-6---7-|--8------8---8--8------8---8--8-------|


  Slower Q=80                                      A
                                                   $
      H                       Q        E      +E
|--------------------------------------------------||
|--------------------------------------------------||
|-------------------------------------10b11==(10)r-||
|--------------------------------------------------||
|--------------------------------------------------||
|--------------------------------------------------||
|
|     |--3--|     |--3--|     |--3--|
|  A  E  E  E  A  E  E  E  A  E  E  E  E       E
|--------------------------------------------------||
|-10s11-11-11-10s11-11-11-10s11-11-11--------------||
|-11s12-12-12-11s12-12-12-11s12-12-12-10-------8---||
|-------------------------------------10-------8---||
|--------------------------------------------------||
|--------------------------------------------------||
|
| Gtr III
|     |--3--|     |--3--|     |--3--|
|  A  E  E  E  A  E  E  E  A  E  E  E  E       E
|--7s=8--8--8--7s=8--8--8--7s=8--8--8--8-----------||
|-10s11-11-11-10s11-11-11-10s11-11-11--x-------8---||
|-------------------------------------10-------8---||
|--------------------------------------------------||
|--------------------------------------------------||
|--------------------------------------------------||
|-Fill 1                                end Fill 1-|

 Pre-Verse
 Tempo Q=104
  ~~~~~~~~~~~~~
  H        +E   E  E      +E
|-8--------(8)-----------------|
|------------------------------|
|-----------------10pb11r(10)p=|
|------------------------------|
|------------------------------|
|------------------------------|
|
| PM   PM   PM----|
| E  E E E  E   E  E       E
|------------------------------|
|------------------------------|
|------------------------------|
|----------10-------------10---|
|-x-10-x---10--10-12------10---|
|-x--8-x-8------8--8-------8---|


     ~~~~~~~~~~~
  S  E.     +H           E      +E
|------------------------------------|
|------------------------------------|
|-8---------------------10b12==(10)r-|
|---10-----(10)----------------------|
|------------------------------------|
|------------------------------------|
|
| PM         PM    PM---|
| E      E   E  E  E  E  E       E
|------------------------------------|
|------------------------------------|
|------------------------------------|
|-------10--------10------------10---|
|-x-----10---x----10-10-12------10---|
|-x------8---x--8-----8--8-------8---|


  ~                          ~~~~~~~~~~~
  H         E  E  E  E    S  E.     +H           +Q
|-8--------------------|-20p18-----(18)---------(18)\----||
|-----------x--x-18-20-|---------------------------------||
|-----------x--x-------|---------------------------------||
|----------------------|---------------------------------||
|----------------------|---------------------------------||
|----------------------|---------------------------------||
|
| PM   PM   PM---|        PM         PM    PM---|
| E  E E E  E  E  E  E    E      E   E  E  E  E   E    E
|----------------------|---------------------------------||
|----------------------|---------------------------------||
|----------------------|---------------------------------||
|---10-----10-------10-|--------10--------10----------10-||
|-x-10-x---10-10-12-10-|--x-----10---x----10-10--12---10-||
|-x--8-x-8-----8--8--8-|--x------8---x--8-----8---8----8-||


   Verses
    A Tempo Q=104
    Gtr II
    PM         PM           PM    PM   PM
    E  E  E E  E  E  E E    E  E  E E  E  E  E  E
||-----------------------|------------------------|
||o----------------------|------------------------|
||-----------------------|------------------------|
||-----------------------|------------------------|
||o---10-12-8-10-10-12-8-|-10-10-12-8-10-10-12-10-|
||--8--8--8-8--8--8--8-8-|--8--8--8-8--8--8--8--8-|


  PM       PM|             PM    PM   PM
  E  E  E  E  E  E  E  E   E  E  E E  E  E  E E
|------------------------|----------------------|
|------------------------|----------------------|
|------------------------|----------------------|
|-x-10-12-10-10-10-12-10-|----------------------|
|-x--8--8--8--8--8--8--8-|-x-10-12-8-10-10-12-8-|
|------------------------|-x--8--8-8--8--8--8-8-|


   PM      PM------|             PM-----|
   E  E  E E  E  E  E  E   E  E  E E  E  E  E  E
|------------------------|-----------------------|
|------------------------|-----------------------|
|------------------------|-----------------------|
|---------------------10-|-----------------------|
|-10-10-12-8-10-10-12-10-|-x-10-12-8-10-10-12-10-|
|--8--8--8-8--8--8--8----|-x--8--8-8--8--8--8--8-|


  PM    PM   PM|                  PM
  E  E  E E  E  E  E  E   E  E  E E  E  E  E  E
|-----------------------|------------------------||
|-----------------------|------------------------||
|-----------------------|------------------------||
|-x-10-12---10-10-12-10-|------------------------||
|-x--8--8-8--8--8--8--8-|---13-12---10-10-12-10--||
|-----------------------|-8-----8-8--8--8--8--8--||


 Chorus
  Gtr I
        ~~              ~~~~~~~~~
  Q     Q    +E   E  E  E     W
|-------------------------|---------------------------|
|------11---(11)-11-----5h|===6-----------------------|
|------10---(10)-10-----5-|--(5)----------------------|
|------12---(12)-12-----5h|===7-----------------------|
|-------------------------|---------------------------|
|-------------------------|---------------------------|
|-Fill 2
|
| Gtr II
|                    PM              PM    PM
| E  E  E E   E   E  E  E    +E   E  E  E  E  E  E  E
|-------------------------|---------------------------|
|-------------------------|---------------------------|
|----------------------10-|-(10)----------------------|
|-x-10-12-8--10--10-12-10-|-(10)-10-12-10-10-10-12-10-|
|-x--8--8-8---8---8--8----|-------8--8--8--8--8--8-10-|
|-------------------------|---------------------------|


        ~~                   ~~~~
  Q     Q   +E   E  E  E     W
|------------------------|---------------------------|
|-------6---(6)--6-----0h|===1-----------------------|
|-------5---(5)--5-----0-|--(0)----------------------|
|-------7---(7)--7-----0h|===2-----------------------|
|------------------------|---------------------------|
|------------------------|---------------------------|
|                                         end Fill 2-|
|
| PM    PM   PM                     PM   PM
| E  E  E E  E   E  E  E    +E   E  E E  E  E  E  E
|------------------------|---------------------------|
|------------------------|---------------------------|
|------------------------|---------------------------|
|---------------------10-|-(10)------------------10--|
|-x-10-12-8-10--10-12-10-|-(10)-10-12-8-10-10-12-10--|
|-x--8--8-8--8---8--8----|-------8--8-8--8--8--8-----|


w/Fill 2 (1st 2 bars only)
  PM    PM           PM
  E  E  E E   E   E  E  E    H      +Q.   S    +S
|-------------------------|-------------------------|
|-------------------------|-------------------------|
|-------------------------|-10-----(10)-------------|
|-x-10-12----10--10-12-10-|-10-----(10)-------------|
|-x--8--8-8---8---8--8--8-|--8------(8)-------------|
|-------------------------|---------------6b7==(6)r-|


                         Slower Q=80
                  To Coda
                                |--3--|     |--3--|     |--3--|
   W                            E  E  E  A  E  E  E  A  E  E  E  E E
|------------------------|---------------------------------------------||
|------------------------|----/11-11-11-------11-11-------11-11-------o||
|------------------------|----/12-12-12-11s12-12-12-11s12-12-12-10-8---||
|------------------------|--------------------------------------10-8---||
|------------------------|--------------------------------------------o||
|------------------------|---------------------------------------------||
|
|  PM    PM--|
|                               |--3--|     |--3--|     |--3--|
|  E  E  E E  E  E  E  E    A   E  E  E  A  E  E  E  A  E  E  E  E E
|------------------------|--7s==8--8--8--7s=8--8--8--7s=8--8--8--8-----||
|------------------------|-10s=11-11-11-10s11-11-11-10s11-11-11--x-8--o||
|------------------------|--------------------------------------10-8---||
|------------------------|---------------------------------------------||
|-10-10-12-8-10-10-12p10-|--------------------------------------------o||
|--8--8--8-8--8--8--8----|---------------------------------------------||


 Guitar Solo
  A Tempo Q=104
                        ~~~~~~~~~~~~
  Q     E.       +S  S  E.      +E   S S
|----------------------------------------|
|------10pb11r==(10)p8-------------------|
|------10pb11r==(10)p8-------------------|
|----------------------10------(10)------|
|----------------------------------------|
|------------------------------------6s8-|
|
| PM    PM           PM------|
| E  E  E     E      S  S  S S   E   E
|----------------------------------------|
|----------------------------------------|
|--------------------------------8--10---|
|--------------------------------8--10---|
|-x-10--x------------x--x--x-x-----------|
|-x--8--x-----8------x--x--x-x-----------|
|-Rhy Fig 1

        |-3--| |-----6------| |--3---|       |-3--|
   S S  S S  S S  S S  S S  S S  S   S  S S  S S  S  E
|-------------------------------------------------------|
|-------------------------------------------------------|
|-------------------------------------------------------|
|-10---10---10---10---10---10---10-----10---10---10-10\-|
|-------------------------------------------------------|
|----8----8----8----8----8----8------8----8----8--------|
|
|  PM          PM             PM----------|
|  E    E      E       E      S    S    S S  E       E
|-------------------------------------------------------|
|-------------------------------------------------------|
|--------------------------------------------8------10--|
|--------------------------------------------8------10--|
|--x---10------x--------------x----x----x-x-------------|
|--x----8------x-------8------x----x----x-x-------------|


                        ~~~
  Q     E.       +S  S  E.      +E    S S
|-----------------------------------------|
|------10pb11r==(10)p8--------------------|
|------10pb11r==(10)p8--------------------|
|----------------------10------(10)\--1h3-|
|-----------------------------------------|
|-----------------------------------------|
|
| PM    PM           PM------|
| E  E  E     E      S  S  S S   E    E
|-----------------------------------------|
|-----------------------------------------|
|--------------------------------8---10---|
|--------------------------------8---10---|
|-x-10--x------------x--x--x-x------------|
|-x--8--x-----8------x--x--x-x------------|


  S S  S S  S S  S S  S  S S S S S E
|----------------------------------------|
|-1----3----1----3----1----3---1---3/----|
|-1----3----1----3----1----3---1---3/----|
|---3----3----3----3-----3---3---3-------|
|----------------------------------------|
|----------------------------------------|
|
| PM
| E    E    E    E    Q.           E
|----------------------------------------|
|----------------------------------------|
|-x------------------10------------------|
|-x-------------10-----------------------|
|-x---11---12----------------------------|
|----------------------------------6b6.5-|
                           end Rhy Fig 1-|

w/Rhy Fig 1 x2
                        ~~~~~~~~~~~~~
  Q     E.       +S  S  E.      +E    S S
|-----------------------------------------|
|------10pb11r==(10)----------------------|
|------10pb11r==(10)p8--------------------|
|----------------------10------(10)\------|
|-----------------------------------------|
|-------------------------------------6s8-|


        |-3--| |-----6------| |-------6--------| |-----6------|
   S S  S S  S S  S S  S S  S S  S   S  S S    S S  S S  S S  S
|-----------------------------------------------------------------|
|-----------------------------------------------------------------|
|-----------------------------------------------------------------|
|-10---10---10---10---10---10---10-----10-----10---10---10---10\--|
|-----------------------------------------------------------------|
|----8----8----8----8----8----8------8----8------8----8----8-(8)\-|

                        ~~~
  Q     E.       +S  S  E.      +E    S S
|-----------------------------------------|
|------10pb11r==(10)----------------------|
|------10pb11r==(10)-8--------------------|
|----------------------10------(10)\--1h3-|
|-----------------------------------------|
|-----------------------------------------|


  S S  S S  S S  S S  S  S S S S S E
|----------------------------------------|
|-1----3----1----3----1----3---1---3/----|
|-1----3----1----3----1----3---1---3/----|
|---3----3----3----3-----3---3---3-------|
|----------------------------------------|
|----------------------------------------|


                             ~~~~~~~~~~~~~
  Q     a      +E.    +S  S  E.      +E    S S
|----------------------------------------------|
|------10b11==(10)r==(10)----------------------|
|------10b12==(10)r==(10)-8--------------------|
|---------------------------10------(10)\------|
|----------------------------------------------|
|------------------------------------------6s8-|


   |-----6------|  |-----6-----|  |-------6-------|  |----6-----|
   S S  S  S  S S  S S  S S  S S  S S    S S  S   S  S S  S  S  E
|--------------------------------------------------------------------|
|--------------------------------------------------------------------|
|--------------------------------------------------------------------|
|-10---10----10---10---10---10---10-----10---10-----10---10----10\---|
|--------------------------------------------------------------------|
|----8-----8----8----8----8----8----8------8------8----8-----8-------|


                        ~~~
  Q     E.       +S  S  E.      +E    S S
|-----------------------------------------|
|------10pb11r==(10)----------------------|
|------10pb11r==(10)p8--------------------|
|----------------------10------(10)\--1h3-|
|-----------------------------------------|
|-----------------------------------------|


  S S  S S  S S  S S  S  S S S S S E
|----------------------------------------|
|-1----3----1----3----1----3---1---3/----|
|-1----3----1----3----1----3---1---3/----|
|---3----3----3----3-----3---3---3-------|
|----------------------------------------|
|----------------------------------------|


                    ~~~
   Q    S E.        Q.         E   E  E      +S    E.          E       E     q
|--------------------------------|-------------------------------------------------|
|-------8------------------------|-------------------------------------------------|
|---------8b8.5------------------|---10b11==(10)r-10b10.5----[10]b12---8---[10]----|
|------------------10p=========8-|-------------------------------------------------|
|--------------------------------|-------------------------------------------------|
|--------------------------------|-------------------------------------------------|
|
|  PM   PM          PM|            PM         PM               PM--------|
|  E  E E        E  S S E A E  E   E  E       E            E   S     S S S   E   E
|--------------------------------|-------------------------------------------------|
|-----------------------------10-|-------------------------------------------------|
|-------------------------7s8-10-|-------------------------------------------8--10-|
|-------------------------7s8-10-|-------------------------------------------8--10-|
|-10-10-x-------10--x-x----------|-x-10-------x-----------10---x-----x-x-x-------8-|
|--8--8-x--------8--x-x-8--------|-x--8-------x------------8---x-----x-x-x-------8-|
|                                |-Rhy Fig 2                         end Rhy Fig 2-|
| Gtr IV
|  Q    q           q       Q
|--------------------------------|
|-------6-----------5------------|
|-------5-----------5------------| w/Rhy Fill 1 x7
|-------7-----------5------------|
|--------------------------------|
|--------------------------------|
|-Rhy Fill 1      end Rhy Fill 1-|
[ Tab from: http://www.guitartabs.cc/tabs/z/zz_top/im_bad_im_nationwide_tab_ver_2.html ]
w/Rhy Fig 2 x6
   ~~                   ~~
   Q     S      E.      Q       E  e    S S  S  S  S S  S S S E.     S     E       +S
|------------------------------------|----------------------------------------------------|
|------------------------------------|----------------------------------------------------|
|-------10b10.5-8b9------------------|----------------------------------------------------|
|-10-------------------10----------8-|-10p8----10----8------------------------------------|
|------------------------------------|------10----10---10-9-8s6------8b8.5p6b7=====(6)r---|
|------------------------------------|----------------------------------------------------|



                  ~~                                            ~~~
  E  E S S  E     E.    S E  E   E      E E  E    +E     E   E  E
|------------------------------|----------------------------------|
|------------------------------|----------------------------------|
|------------------------------|----------------------------------|
|-----------1b1.5--------------|-1b1.5----1--3b5==(3)rp==1---3----|
|------1h3--------3p====1------|--------3-----------------------3-|
|-x--3-----------------------3-|----------------------------------|



 ~~~~~~              ~~~
  +E   E S S  E E    Q       E   E  E    +E    E  E     E    E   E
|------------------------------|-------------------------------------|
|------------------------------|-------------------------------------|
|------------------------------|----8b9==(8)rp=6-10----------8-------|
|-------------1--------------1-|----------------------(10)-----(10)--|
|-(3)p=1-1-3--1-----(3)------1-|-------------------------------------|
|------------------------------|-------------------------------------|



                      ~~~
   E      +E    E  E  Q    q
|------------------8------11-----------|
|---------------8----13----------------|
|-10b11==(10)r-------------------------|
|--------------------------------------|
|--------------------------------------|
|--------------------------------------|
|
|  PM
|  E       E    E  E  Q.     S    +S
|--------------------------------------|
|--------------------------------------|
|--------------------10----------------|
|-----------------10-------------------|
|--x------11---12----------------------|
|--x-------------------------6b7==(6)r-|


                                               ~~~~~~
   E  E      +E   E  E  E       E  S  S   E Q  E +E  Q  E
|---------------------------------------|------------------|
|----10-----(10)----10------------------|------------------|
|----10b11==(10)r-8-10-(8)b8.5----------|------------------|
|------------------------------10--8h10-|---8--8-(8)-8--9--|
|---------------------------------------|------------------|
|---------------------------------------|------------------|
|
|  PM         PM------------------|
|  E  E       E   E  E  E       E  E      E Q  E  E  Q  E
|---------------------------------------|------------------|
|---------------------------------------|------------------|
|---------------------------------------|------------------|
|---------------------------------------|---8--8-(8)-8--9s=|
|-10-10------12---8-10-10------12-10----|-x-8--8-(8)-8--9s=|
|--8--8-------8---8--8--8-------8--8----|-x-6--6-(6)-6--7s=|



      PM              ~~~
   E  E  E     E   E  Q     E
|-----------------------------|
|-------10b11-----10----------|
|-------10b12-(8)-10----------|
|--------------------10p====8-|
|-----x-----------------------|
|-----------------------------|
|
|     PM-------------|
|  E  E  E     E   E  E  E  E
|-----------------------------|
|-----------------------------|
|-----------------------------|
|-10--------------------------|
|-10-10-12-----8--10-10-12p10-|
|--8--8--8-----8---8--8--8----|


 Slower Q=80
 w/Fill 1                                           D.S. al Coda
       H                       Q        E      +E
|---------------------------------------------------||
|---------------------------------------------------||
|--------------------------------------10b11==(10)r-||
|---------------------------------------------------||
|---------------------------------------------------||
|---------------------------------------------------||
|
|      |--3--|     |--3--|     |--3--|
|      E  E  E  A  E  E  E  A  E  E  E  E       E
|---------------------------------------------------||
|----/11-11-11-------11-11-------11-11--------------||
|----/12-12-12-11s12-12-12-11s12-12-12-10-------8---||
|--------------------------------------10-------8---||
|---------------------------------------------------||
|---------------------------------------------------||



  Slower Q=80
  &
w/Fill 1
  Gtr V
       H                       Q        S  S E
|--------------------------------------------------||
|--------------------------------------------------||
|---------------------------------------8-10-8b8.5-||
|--------------------------------------------------||
|--------------------------------------------------||
|--------------------------------------------------||
|
|      |--3--|     |--3--|     |--3--|
|      E  E  E  A  E  E  E  A  E  E  E  E    E
|--------------------------------------------------||
|----/11-11-11-------11-11-------11-11-------------||
|----/12-12-12-11s12-12-12-11s12-12-12-10----8-----||
|--------------------------------------10----8-----||
|--------------------------------------------------||
|--------------------------------------------------||



 Outro
A Tempo Q=104
   ~~~                                 ~~
   E   e    Q       E.   S  S     S S  S
|----------------------------------------|
|----------------------------------------|
|-10p==8----------------------------8----|
|---------------------------------8---10-|
|------------------------8h10------------|
|----------------------------------------|
|
|  PM--------------------|
|  S S S S +S  E S +S  E S  E       E
|----------------------------------------|
|----------------------------------------|
|----------------------------------------|
|---------------------------1b1.5---3----|
|--3-3-3-3-(3)-3-3-(3)-3-3---------------|
|----------------------------------------|
|-Rhy Fig 3


    ~~~~~                                ~~~
   +E    e    Q       Q      S S S     a S
|------------------------------------------|
|------------------------------------------|
|------------------------------------------|
|-(10)p==8---------------------------------|
|--------------------------------1-----2h3-|
|------------------------------3-----------|
|
|   PM---------------------|
|   S  S S S +S  E S +S  E S S S E
|------------------------------------------|
|------------------------------------------|
|------------------------------------------|
|------------------------------------------|
|---3--3-3-3-(3)-3-3-(3)-3-3-1---1b1.5-----|
|------------------------------3-----------|
                             end Rhy Fig 3-|

                                                                     Gtr IV
 ~~~~~            PM                          ~~                         PM
  +E    e    E    S S +S     +S   S S S     S E   e   E   Q       E.     S  E      S S
|-----------------------------------------------|----------------------------------------||
|-----------------------------------------------|----------------------------------------||
|-----------------------------------------------|--------------------------10b11---8-8---||
|-------1----3----1-3-(3)b4==(3)r-3-1-3-----1---|------------------------x---------------||
|-(3)---1-------------------------------------3p|=1--------------------------------------||
|-----------------------------------------------|----------------------------------------||
|
|  PM-------------------------------|
|  S  S S S +S  E   S +S      E     S E       E   S S S S S S S S S  S S S  S    S S S
|-----------------------------------------------|----------------------------------------||
|-----------------------------------------------|----------------------------------------||
|-----------------------------------------------|----------------------------------------||
|-------------------------------------1b1.5---3-|----------------------------------------||
|--3--3-3-3-(3)-3---3-(3)-----3-----3-----------|-3-1----------------1-------------------||
|-----------------------------------------------|-----3-2-1-0-1-2-3----3-2--1----0-1-2---||
                                                |-Riff A                      end Riff A-|

w/Rhy Fig 3 x1.5
   ~~~                                                     ~~~
                                                                                  |---3----|
   E   e    Q     E      Q          a  S S    S S E        E    e    E.   S  S S  S     S  S
|------------------------------------------|-------------------------------------------------|
|----------------------/11-----------------|----8--------------------------------------------|
|----------------------/12---------12s10p8-|-10---8b8.5--------------------------------------|
|-10p==8-----------------------------------|--------------10p===8--------------8-10p====8h10-|
|------------------------------------------|------------------------------8h10---------------|
|------------------------------------------|-------------------------------------------------|


  E.        S     +E        E       +S      E.      E.      S
|--------------------------------------------------------------------|
|--------------------------------------------------------------------|
|-----------8-----(8)-------8-------(8)-----8-------8-------8--------|
|-8tr10-----8tr10-(8tr10)---8tr10---(8tr10)-8tr10---8tr10---8tr10----|
|--------------------------------------------------------------------|
|--------------------------------------------------------------------|

w/Riff A
                                                              Gtr V
  +E        E       +S      E.        E.        S     +E        E
|-----------------------------------------------------------------------||
|-----------------------------------------------------------------------||
|-(8)-------8-------(8)-----8---------8---------8-----(8)-------8-------||
|-(8tr10)---8tr10---(8tr10)-8tr10-----8tr10-----8tr10-(8tr10)---8tr10---||
|-----------------------------------------------------------------------||
|-----------------------------------------------------------------------||


w/Rhy Fig 3 x3.5
                                          PM--|         ~~
  S E   S +S  E S  S  S E   E     S S   S S   S S  S  S E    e    E   Q
|-------------------------------------|--------------------------------------------|
|-------------------------------------|--------------------------------------------|
|-------------------------------------|--------------------------------------------|
|------------------1h=3-----------3-1-|-3-3b4-3-1--3--1----------------------------|
|-1h3---3-(3)-3-3---------------------|-----------------3p===1---------------------|
|-------------------------------------|--------------------------------------------|


   |-----3------|
   S      +S    S  S  S  S  S      S S  S  S  S  S      S     e   S
|-------------------------------------------------------------------|
|-------------------------------------------------------------------|
|-10pb12r(10)p==8-10-10-----8b8.5------10--8-10-10pb12-10-----8-----|
|-----------------------10--------10-8----------------------------7-|
|-------------------------------------------------------------------|
|-------------------------------------------------------------------|


                                                              ~~            ~~~~~~~
   S      +S    S S  S  S  S S  E    +E     S a a e      S    Q      S   e  S  +E    E   Q
|----------------------------------------------------------|---------------------------------|
|-----------------------8----8-----------------------------|---------------------------------|
|-10b12==(10)r-10-8-10----10----8b9==(8)r---------8-----10-|---------8--10-----------x-------|
|-----------------------------------------------x----------|-10------------10-(10)-----------|
|---------------------------------------------x------------|---------------------------------|
|----------------------------------------------------------|---------------------------------|


  S  E.         +S    E.      E.      S S S  E
|--------------------------------------------------|
|----8----------(8)---8-------8-------8------------|
|---10b11======(10)r-10b11---10b11---10---8--------|
|-------------------------------------------10-----|
|--------------------------------------------------|
|--------------------------------------------------|

                                          |-w/Riff A
                                                  ~~~
  H                E.    S S     A A  S E    S S  E   E   E   H
|------------------------8-------8--------|-----------------------------------||
|-----------------------11---------x------|-----------------------------------||
|------------------------------------10p8-|-10-8------------------------------||
|-----------------------------------------|------10p==8-----------------------||
|-----------------------------------------|-----------------------------------||
|-----------------------------------------|-----------------------------------||


w/Rhy Fig 3 x3.5
  Gtr V
                                                    ~~
   S S  S      +S   S   S S  S  S  S  S  S S     S  E
|-----------------------------------------------------|
|-11p8--------------------------8---------------------|
|------10pb12r(10)--8--10-8-10-----8----10-------8----|
|------------------------------------10------------10-|
|-----------------------------------------------------|
|-----------------------------------------------------|


  S  e   S  E     E        +E     S  S S  S S      S
|-----------8---------------------8----8-11p8---------|
|-8-11---8-------11b13====(11)r-----11------------11--|
|-----------------------------------------------------|
|-----------------------------------------------------|
|-----------------------------------------------------|
|-----------------------------------------------------|

                                                                               ~~
  E    Q        S S  S  S  S    S  e   E    S      +S    S S  S  S S  S  S  S  E   S  S  E
|-8--------------------------------------|---------------------------------------------------||
|-----11b13----11-8-11-------------------|-----------------------8---------------------------||
|-----------------------8-10b12-8-10-----|-10b12==(10)r-10-8-10----8----10--8----------------||
|----------------------------------------|---------------------------10-------10---8----10---||
|----------------------------------------|-------------------------------------------10------||
|----------------------------------------|---------------------------------------------------||


Gtr IV
                                                   ~~~
  E     Q          a  S S  S  S S  S  S     S      E
|--------------------------------------------------------|
|-----/11------------------------------------------------|
|-----/12---------12s10p8-10--8-8----10-----8b8.5--------|
|------------------------------------10-----------10p====|
|---------------------------------10---------------------|
|--------------------------------------------------------|


  e   S  S  +E        S S  Q      S S E
|-------------------------------------------|
|-------------------------------------------|
|-------10-(10)b11---10-8-------------------|
|-8---------------------------------7h8-----|
|-------------------------------------------|
|-------------------------------------------|

                                                   |-w/Riff A
                   ~~~
  E       E        E.   S  S   S  S S  S     S S S   S S S S q       E.     S S S e
|--------------------------------------------------|-------------------------------------|
|--------------------------------------------------|-------------------------------------|
|-8b8.5---8b8.5------------------------------------|-------------------------------------|
|-----------------10----8-----10----8--------------|-------------------------------------|
|--------------------------------10---10-----9-8s6h|=8p6------------------------1-3------|
|--------------------------------------------------|-----8p6h8--------------1h3----------|

w/Rhy Fig 3 x 1.5
  E.       S    +E       E      +S     a E S S     S S S
|--------------------------------------------------------|
|--------------------------------------------------------|
|--------------------------------------------------------|
|--------------------------------------------1-----3-----|
|-1tr3-----1tr3-(1tr3)---1tr3---(1tr3)-1h3-3---------3-1-|
|--------------------------------------------------------|



  E.    S    +E      E     +S     a E.   S S S   S
|--------------------------------------------------|
|--------------------------------------------------|
|--------------------------------------------------|
|--------------------------------------------------|
|-1tr3--1tr3-(1tr3)--1tr3--(1tr3)-1h3----1---1---3-|
|------------------------------------------3-------|


  E.    S    +E       E      +S     a E S S     S S S
|-----------------------------------------------------|
|-----------------------------------------------------|
|-----------------------------------------------------|
|-----------------------------------------1-----3-3-1-|
|-1tr3--1tr3-(1tr3)---1tr3---(1tr3)-1h3-3-------------|
|-----------------------------------------------------|

w/Riff A                           |-w/Rhy Fig 3 x1.5
                    ~~                       ~~~~~~~
  S S S S S S S S S E.     q         S  E    S  +E    E   +S   s E   E     e
|----------------------------------|-----------------------------------------|
|-----3-5---3----------------------|-----------------------------------------|
|-3s5-----5---5-4-3s1------3-------|---------------------------------8b8.5-9-|
|----------------------------------|------------------8---(8)-10-------------|
|----------------------------------|-8s10---10-(10)--------------------------|
|----------------------------------|-----------------------------------------|


     ~~~
  A  E.     S  E    E    S   E  S E   E
|----------------------------------------------|
|----------------------------------------------|
|---------------------------------8---x--------|
|-----------8-------8-------10-10-----x--------|
|-8h10-----------------------------------------|
|----------------------------------------------|


   Q.                  E      Q          +E     S  S
|----------------------------------------------------|
|---------------------11-----------------------------|
|-10b12==============(10)r---10pb11r====(10)----8-10-|
|----------------------------------------------------|
|----------------------------------------------------|
|----------------------------------------------------|

w/Riff A                              |-w/Rhy Fig 3 x1.5
        ~~~
   S S  E   E   E   Q       E     E      +Q         +S   S E    E    S S E       E
|-------------------------------------|-----------------10-----10------8-------/11-|
|-------------------------------/11---|-(11)-------(11)----------------------------|
|----8--------------------------/12---|-(12)-------(12)--------10------8-------/12-|
|-10---10p==8-------------------------|--------------------------------------------|
|-------------------------------------|--------------------------------------------|
|-------------------------------------|--------------------------------------------|


   +Q         +S   S E    e    S S +E      E
|-(11)-------(11)-10-----10------8-(8)---/11-----|
|----------------------------------------/11-----|
|-(12)-------(12)-10-----10------8-(8)---/12-----|
|------------------------------------------------|
|------------------------------------------------|
|------------------------------------------------|


                                              |-w/Riff A
   +Q         +S   S E    e     S S +E      E     Q       Q       H
|-(11)-------(11)-10-----10-------8-(8)----10-|--------------------------------------*|
|-(11)-------(11)-----------------------------|-/11----------------------------------*|
|-(12)-------(12)-10-----10----------------10-|-/12----------------------------------*|
|------------------------------10-------------|--------------------------------------*|
|---------------------------------------------|--------------------------------------*|
|---------------------------------------------|--------------------------------------*|
Comments