Zz Top - Girl In A T-shirt Chords & Tabs

 

Girl In A T-shirt Chords & Tabs

Zz Top Chords & Tabs

Version: 1 Type: Tab 0 ratings
1 star 2 stars 3 stars 4 stars 5 stars
comments

Girl In A T-shirt Tab

                             ZZ TOP
                       GIRL IN A T-SHIRT


STANDARD TUNING
EADGBe

intro
---------------------------------------------------------------|
---------------------------------------------------------------|
--------------------------------------------------5------------|
--------------------------------------------------5------------|
--0-0-----0-0-----0-0-----0-0-----0-0-----0-0-----3-0----0-----|
------3h4-----3h4-----3h4-----3h4-----3h4-----3h4-----3h4-5/0--|


-------------------------------------------------------|
-------------------------------------------------------|
--7b---7b------7b------------7b---7b------7b-----------|
-----8----8-------8-7b-8-8------8----8-------8-7b-8-8--|
-------------------------------------------------------|
-------------------------------------------------------|


--------------------------------------------------------------|
--------------------------------------------------------------|
--------------------------------------------------5-----------|
--------------------------------------------------5-----------|x2
--0-0-----0-0-----0-0-----0-0-----0-0-----0-0-----3-0-----0---|
------3h4-----3h4-----3h4-----3h4-----3h4-----3h4-----3h4-----|


---------------------------------------------------------------|
---------------------------------------------------------------|
--------------------------------------------------5------------|
--------------------------------------------------5------------|x3
--0-0-----0-0-----0-0-----0-0-----0-0-----0-0-----3-0----0-----|
------3h4-----3h4-----3h4-----3h4-----3h4-----3h4-----3h4-5/0--|


------------------------------------------------------------------------|
------------------------------------------------------------------------|
------------------------------------------------------------------2b-2b-|
------------------------------------------------------------------------|
--0-0-3h4-0-0-3h4-0-0-3h4-0-0-3h4-0-0-3h4-0-0-3h4-0-0-3h4-0-0-3h4-------|
------------------------------------------------------------------------|

[ Tab from: http://www.guitartabs.cc/tabs/z/zz_top/girl_in_a_t_shirt_tab.html ]
-------------------------------------------------------------------|
-------------------------------------------------------------------|
-------------------------------------------------------------------|
-------------------------------------------------------------------|
--0-0-----0-0-----0-0-----0-0-----0-0-----0-0-----0-0-----0-0------|
------3h4-----3h4-----3h4-----3h4-----3h4-----3h4-----3h4-----3h4--|


just a girl in a t-shirt...
-----------------------------|
--------------7b---7b--------|
-----------------8----8------|
-----------------------------|
---5-4-5-4-5-----------------|
---5-4-5-4-5-----------------|


-------------------------------------------------------------------|
-------------------------------------------------------------------|
-------------------------------------------------------------------|
-------------------------------------------------------------------|x3
--0-0-----0-0-----0-0-----0-0-----0-0-----0-0-----0-0-----0-0------|
------3h4-----3h4-----3h4-----3h4-----3h4-----3h4-----3h4-----3h4--|


------------------------------------------------------------------------|
------------------------------------------------------------------------|
------------------------------------------------------------------2b-2b-|
------------------------------------------------------------------------|
--0-0-3h4-0-0-3h4-0-0-3h4-0-0-3h4-0-0-3h4-0-0-3h4-0-0-3h4-0-0-3h4-------|
------------------------------------------------------------------------|


-------------------------------------------------------------------|
-------------------------------------------------------------------|
-------------------------------------------------------------------|
-------------------------------------------------------------------|x2
--0-0-----0-0-----0-0-----0-0-----0-0-----0-0-----0-0-----0-0------|
------3h4-----3h4-----3h4-----3h4-----3h4-----3h4-----3h4-----3h4--|

just a girl in a t-shirt...
-----------------------------|
--------------7b---7b--------|
-----------------8----8------|
-----------------------------|
---5-4-5-4-5-----------------|
---5-4-5-4-5-----------------|


thats pretty much it
after this ther is a solo and it just repeats
easy song
peace
Comments