Zz Top - Doubleback Chords & Tabs

 

Doubleback Chords & Tabs

Zz Top Chords & Tabs

Version: 1 Type: Tab 0 ratings
1 star 2 stars 3 stars 4 stars 5 stars
comments

Doubleback Tab

#----------------------------------PLEASE NOTE---------------------------------#
#This file is the author's own work and represents their interpretation of the #
#song. You may only use this file for private study, scholarship, or research. #
#------------------------------------------------------------------------------#

------------------> Doubleback by ZZ Top from Recycler album <--------------------

  Gtr I

|-------------------------------------------------------------------|
|-4------------6-------------------4/-6--------------4--------------|
|-3------------5-------------------3/-5---5-5-5---h5-3--------------|
|-3------------5--------------------------5-5-5--3h5----------------|
|-3------------5------------------------3---3----3------------------|
|-------------------------------------------------------------------|

 (1)          (2)                ---> intro/song part <---
 

 Hint! Play the whole "intro and song lick" with the 3,3,3,4 grip, just
 slide between these two (1 and 2) chords and play as shown in the intro/song part...


  Gtr I
                      x     x      x       x
|------------------------------------------------|
|-------6-------------6-----9------11------11----|
|-------5-----------5-5---8-8---10-10---10-10----|
|-------5-----------5-----8-----10------10-------|
|------------------------------------------------|
|------------------------------------------------|

 Looki'n high and low part:

 Hint! Slide with the 5,5,6 grip and play the part as shown...
 the place marked with an "x" means you should pick it with ya fingers.
 Also look at the alternative part for this one.


  Gtr I
                     x     x       x       x
|------------------------------------------------|
|--------------------6-----9-------11------11----|
|------------------5-5---8-8----10-10---10-10----|
|------------------5-7---8-10---10-12---10-12----|
|------------------------------------------------|
|------------------------------------------------|
[ Tab from: http://www.guitartabs.cc/tabs/z/zz_top/doubleback_tab.html ]
 Alternative part: (like the "Jesus just left Chicago" style of play)
 

 Choose the one you like best... I prefer the last one.


  Gtr I
                  x      x
|------------------------------|
|-----------------11-----11----|
|-5--3--2--3---10-10--10-10----|
|-5--3--2--3---10-----10-------|
|------------------------------|
|------------------------------|

 part 1


  Gtr I
                  x      x
|------------------------------|
|-----------------11-----11----|
|-5--3--2--3---10-10--10-10----|
|-5--3--2--3---10-12--10-12----|
|------------------------------|
|------------------------------|

 Alternative part for part 1


|--------------------------------------------------------|
|-4------------6-------------------4/-6------------------|
|-3------------5-------------------3/-5---5-5-5-3-h-5----|
|-3------------5--------------------------5-5-5-3-h-5--3-|
|-3------------5------------------------3---3-3-3---3--3-|
|--------------------------------------------------------|

                                   -----> Outro <------

 Outro: Like the hint in the beginning (try to stick with the "grip")
 and just slightly different...


  Gtr I

|-------------|
|-4/-6--------|
|-3/-5-3-5----|
|------3-5----|
|------3-3----|
|-------------|


"Grande Finale" Do we have assumed control?? :) Naah, it's an easy tune...

xxxxxxxxxxxxxxxxxxxxxxxxxxxxxxxxxxxxxxxxxxxxxxxxxxxxxxxxxxxxxxxxxxxxxxxxxxxxxxxxxxxxxxx

 Solo for this song is easy but takes time to type so... just fool around with
 harmonics made by your thumb and plektrum (together) within the right key an
 it will sound cool.

 Thx all! "mEeK", (Avesta, Sweden) meek@spray.se, sighning off and hope
you'll "get it right"- It is pretty close anyway :) Go buy the Recycler tab book
for accurate tablature transcription.

 ZZ Top rox!
 Bye.
 
***************************************************************************************
* Generated using Power Tab Editor by Brad Larsen - http://powertab.guitarnetwork.org *
***************************************************************************************
Comments