Zz Top - Cocaine Chords & Tabs

 

Cocaine Chords & Tabs

Zz Top Chords & Tabs

Version: 1 Type: Tab 0 ratings
1 star 2 stars 3 stars 4 stars 5 stars
comments

Cocaine Tab

                           ZZ TOP
                           COCAINE


STANDARD TUNING
EADGBe


------------------------------------|
------------------------------------|
------------7-----------------------|
---9-9-7-9--7-----------------------|
---7-7-5-7--5--------------5--------|
-----------------5h7p5h7p5----------|


----------------------------|
--3s5-hold--3s5-3-----------|
--2s4-hold--2s4-2-----------|
----------------------------|
----------------------------|
----------------------------|
[ Tab from: http://www.guitartabs.cc/tabs/z/zz_top/cocaine_tab.html ]
this is played in the background of the above riff
--------------------------|
--------------------------|
--------------------------|
------0-------------------|
--0h2---0h2-0-------------|
--------------4p0---------|


then this comes
--------------------------|
--------------------------|
--9p7---7-----------------|
------9---9p7s5-----------|
--------------------------|
--------------------------|

this is played during the chorus
---------------------------------------|
-----------3s5-----------------5s3-----|
-----------2s4-----------------4s2-----|
--9-9-7-9---------9-9-7-9--------------|
--7-7-5-7---------7-7-5-7--------------|
---------------------------------------|
Comments