Zz Top - Cheap Sunglasses Chords & Tabs

 

Cheap Sunglasses Chords & Tabs

Zz Top Chords & Tabs

Version: 1 Type: Bass Tab 0 ratings
1 star 2 stars 3 stars 4 stars 5 stars
comments

Cheap Sunglasses Bass Tab

Artist: ZZ Top
Bassist: Dusty Hill
Album: Greatest Hits
Song: Cheap Sunglasses


Main Riff:
    
    G-------------------------------------------------------
    D-------------------------------------------------------
    A-------------------------------------------------------
    E-0-0--0--0--0--0--3-3-5-------------------------

(Play this for Versus and Choruses as many times needed)


Interlude 1and 2:

    G-------------------------------------------------------
    D-------------------------------------------------------
    A------3------3---------------------------------------
    E-3-3----3-3----3--3-3-----------------------------

            (Play Seven times or till Solo)

Solo 1 and 2:
[ Tab from: http://www.guitartabs.cc/tabs/z/zz_top/cheap_sunglasses_btab.html ]
    G--------------------------------------------------------
    D------3------3-----------------------------------------
    A-3-3----3-3----3--3-3------------------------------
    E--------------------------------------------------------
                (Play till ends of Solos)

Outro:

    G--------------------------------------------------------
    D--------------------------------------------------------
    A-----------------------5----5--------------------------
    E-3-3--1---3-3--1-----3----3-3---------------------

                (Play Ten times)


Song Order:

    Main Riff: Both Verses and both Chrouses as many times as needed.
    Interludes: As many times as needed till Solos.
    Solos: Till the end of the Solo and then changes into and Interlude or 
the Outro.
    Outro: Till the end of the song ten times.
    
    Hey! This is my first time tabbing, but I'm sure its accurate.  This song 
is fun to play and is easy.  So I hope you enjoy ZZ Top's Cheap sunglasses.  
If you have any questions please E-mail me at Rockrr86@aol.com.  Enjoy!

Comments