Zz Top - A Fool For Your Stocking Chords & Tabs

 

A Fool For Your Stocking Chords & Tabs

Zz Top Chords & Tabs

Version: 1 Type: Bass Tab

A Fool For Your Stocking Bass Tab

   
Title: A fool for your stocking
Artist: ZZ Top
Album: Deguello
Tabber: Steph
Email: cyberbassist@hotmail.com

Standard tuning

Chords of this blues song (A D C Bb E)

Intro (bass enter 0:17)
   A
G|-----------------------------|
D|*---------------------------*|
A|*---------------------------*|
E|-5-55-55-55-55-55-55-55-0-3--|

[ Tab from: http://www.guitartabs.cc/tabs/z/zz_top/a_fool_for_your_stocking_btab.html ]
Verse
   A                          
G|-----------------------------------------------------------------------|
D|-----------------------------------------------------------------------|
A|-----------------------------------------------------------------------|
E|-5-55-55-55-55-55-55-55-0-3-5-55-55-55-55-55-55-55-5-------------------|
 
  D                           A                        C
G|-----------------------------------------------------------------------|
D|-----------------------------------------------------------------------|
A|-5-55-55-55-55-55-55-55------------------------------3-33-33-33-3------|
E|------------------------0-3-5-55-55-55-05-55-55-55-5-------------------|

   Bb     E
G|----------------|
D|----------------|
A|-2-22-2---------|
E|--------0-00-0--|


Solo 1:45 *=figure out where the parts goes in the second part of the solo
                3x*
G|-----------------|-----------------------------------------------------|
D|*---------------*|-----------------------------------------------------|
A|*---------------*|-----------3-5-55-55-55--3-5-55-55-55----------------|
E|-5-55-55-55-03---|-5-55-55-55-------------5-------------0-3------------|

G|-----------------------------------------------------------------------|
D|-----------------------------------------------------------------------|
A|----------------------------3-33-33-33-3-2-22-2------------------------|
E|-5-55-55-55-03-5-55-55-55-5---------------------0-00-0-----------------|


Outro

G|-----------------|
D|*---------------*|
A|*---------------*|
E|-5-55-55-55-0-3--|

Keep it simple :)