Zyklon - An Eclectic Manner Chords & Tabs

 

Zyklon Chords & Tabs

Version: 1 Type: Tab 0 ratings
1 star 2 stars 3 stars 4 stars 5 stars
comments

An Eclectic Manner Tab

Band- Zyklon
Song- An Eclectic Manner

Tuning: DGCFAD

Does this riff until 00:37
----------------------------------------|
----------------------------------------|
----------------------------------------|
---------------------3333333------------|
-5555555555544444444411111113333333-----|
-33333333333222222222-------1111111-----|
not the exact rythm listen 2 get it right

gtr1
-----------------------------------|
-----------------------------------|
---------7-------------------------|
---5---5---5-4------4---4---7---7--|
-----------------------------------|
-3---2---------0--2---0---5---3----|
this part is difficult 2 make out but listen and get it
gtr2
--------------------------------------------------------|
--------------------------------------------------------|
--------------------------------------------------------|
--------------------------------------------------------|
-5555555555555555555555555444444444444888888888888------|
-3333333333333333333333333322222222222666666666666------|X2

----------------------------------------|
----------------------------------------|
----------------------------------------|
---------------------3333333------------|
-5555555555544444444411111113333333-----|
-33333333333222222222-------1111111-----|X4
not the exact rythm listen 2 get it right

gtr1
-----------------------------------|
-----------------------------------|
---------7-------------------------|
---5---5---5-4------4---4---7---7--|
-----------------------------------|
-3---2---------0--2---0---5---3----|
this part is difficult 2 make out but listen and get it
gtr2
--------------------------------------------------------|
--------------------------------------------------------|
--------------------------------------------------------|
--------------------------------------------------------|
-5555555555555555555555555444444444444888888888888------|
-3333333333333333333333333322222222222666666666666------|X2

[ Tab from: http://www.guitartabs.cc/tabs/z/zyklon/an_eclectic_manner_tab.html ]
----------------------------------------|
----------------------------------------|
----------------------------------------|
---------------------3333333------------|
-5555555555544444444411111113333333-----|
-33333333333222222222-------1111111-----|X4


--------------------------|
--------------------------|
--------------------------|
--------------------------|
-2-4-5-9-----8-4-7-5-3----|
-0-2-3-7-787-6-2-5-3-1----|X2

gtr1
--------------------|
--------------------|
--------------------|
--------------------|
-2-4-5-9-8-4-5-3----|
-0-2-3-7-6-2-3-1----|X2
 pm..............
 triplets
 listen 2 the song 4 rythm

gtr 2
--------------------------|
--------------------------|
-9-11-12-16-15-11-12-10---|
--------------------------|
--------------------------|
--------------------------|X2

Interlude part with all the sound effects

gtr1
-----------------------------------|
-----------------------------------|
---------7-------------------------|
---5---5---5-4------4---4---7---7--|
-----------------------------------|
-3---2---------0--2---0---5---3----|
this part is difficult 2 make out but listen and get it
gtr2
--------------------------------------------------------|
--------------------------------------------------------|
--------------------------------------------------------|
--------------------------------------------------------|
-5555555555555555555555555444444444444888888888888------|
-3333333333333333333333333322222222222666666666666------|X4

----------------------------------------|
----------------------------------------|
----------------------------------------|
---------------------3333333------------|
-5555555555544444444411111113333333-----|
-33333333333222222222-------1111111-----|X2

--------------------------|
--------------------------|
--------------------------|
--------------------------|
-2-4-5-9-----8-4-7-5-3----|
-0-2-3-7-787-6-2-5-3-1----|X2

gtr1
--------------------|
--------------------|
--------------------|
--------------------|
-2-4-5-9-8-4-5-3----|
-0-2-3-7-6-2-3-1----|
 pm..............
 triplets
 listen 2 the song 4 rythm

gtr 2
--------------------------|
--------------------------|
-9-11-12-16-15-11-12-10---|
--------------------------|
--------------------------|
--------------------------|
Repeats these till end
Comments