Zwan - Yeah Chords & Tabs

 

Yeah Chords & Tabs

Zwan Chords & Tabs

Version: 2 Type: Tab 0 ratings
1 star 2 stars 3 stars 4 stars 5 stars
comments

Yeah Tab

   
Intro

G1 
E-------------|-----------------| x2
B-------10----|--------7--------|
G-6/9----9----|-4------7--------|
D-6/9----7----|-4------7--------|
A-4/7----7----|-2------5--------|
E-------------|-----------------|

Verse 1

G1 
E-------------------|-----------------| x3
B-------10-10--10---|--------7-5--5---|
G-6/9----9---9---9--|-4------7--7--7--|
D-6/9----7----7---7-|-4------7---7--7-|
A-4/7----7----------|-2------5--------|
E-------------------|-----------------|

Chorus 1

G1 
E-------------|-----------------| x2
B-------10----|--------7--------|
G-6/9----9----|-4------7--------|
D-6/9----7----|-4------7--------|
A-4/7----7----|-2------5--------|
E--------7----|-----------------|

Verse 2

G1
E-----------------|-----------------|x3
B-----------------|-----------------|
G-2-------7-------|-2/4------7------|
D-2-------7-------|-2/4------7------|
A-0-------5-------|-0/2------5------|
E-----------------|-----------------|

Chorus 2

G1
E-----------------|-----------------|x2
B-----------------|-----------------|
G-2-------7-------|-2/4------7------|
D-2-------7-------|-2/4------7------|
A-0-------5-------|-0/2------5------|
E-----------------|-----------------|

Solo over Chorus  
[ Tab from: http://www.guitartabs.cc/tabs/z/zwan/yeah_tab_ver_2.html ]
G2
E---------------------------|----------------------------|
B--------17-----19~-----17~-|--------17------------------|
G-16-18------18------19-----|-16-18------18-16-----------|
D---------------------------|------------------19-16-----|
A---------------------------|------------------------19~-|
E---------------------------|----------------------------|

G2
E---------------------------|---------------------19-17~-|
B--------17-----19~-----17~-|--------17------------------|
G-16-18------18------19-----|-16-18------18-16-----------|
D---------------------------|------------------19--------|
A---------------------------|----------------------------|
E---------------------------|----------------------------|

BRIDGE 1

With random noodleing around mid range notes.

E---|x3
B---|
G-7-|
D-7-|
A-5-|
E---|

E---|x3
B---|
G-9-|
D-9-|
A-7-|
E---|

Chorus 3  Same as Chorus 2

Verse 3  Same as Verse 1

Chorus 4  Same as Chorus 2

Bridge 2  Same as Bridge 1

Chorus 5  Same as Chorus 2

Chorus 6 - Same as Chorus 2

Outro

Repeat until end

G1
E-----------------|-----------------|
B-----------------|-----------------|
G-2-------7-------|-2/4------7------|
D-2-------7-------|-2/4------7------|
A-0-------5-------|-0/2------5------|
E-----------------|-----------------|

G2
E-17-17-17-16-16-16-17-17-17-17-17-16-16-16-16-|
B----------------------------------------------|
G----------------------------------------------|
D----------------------------------------------|
A----------------------------------------------|
E----------------------------------------------|

End on

E---|
B---|
G-7-|
D-7-|
A-5-|
E---|
Comments