Zwan - Settle Down Chords & Tabs

 

Settle Down Chords & Tabs

Zwan Chords & Tabs

Version: 2 Type: Tab 0 ratings
1 star 2 stars 3 stars 4 stars 5 stars
comments

Settle Down Tab

   
Settle Down by Zwan
From the album Mary Star of the Sea
Tabbed by Patrick Vacek (shakurasdragon@hotmail.com)
Dropped D Tuning

Intro, Verse, Solo Rhythm, and Outro:

   D		   C#		   A
e|-----------------------------------------------------------------|
B|-----------------------------------------------------------------|
G|-----7-----7---7-----6-----6---6-----2-----2---2-----2-----2---2-|
D|-----------------------------------------------------------------|
A|-5-5---5-5---5---4-4---4-4---4---0-0---0-0---0---0-0---0-0---0---|
D|-----------------------------------------------------------------|

   G		   F#		   A
e|-----------------------------------------------------------------|
B|-----------------------------------------------------------------|
G|-----------------------------------------------------------------|
D|-----5-----5---5-----4-----4---4---------------------7-----7---7-|
A|-------------------------------------7-----7---7-----------------|
D|-5-5---5-5---5---4-4---4-4---4---7-7---7-7---7---7-7---7-7---7---|
[ Tab from: http://www.guitartabs.cc/tabs/z/zwan/settle_down_tab_ver_2.html ]
   D		   C#		   A
e|-----------------------------------------------------------------|
B|-----------------------------------------------------------------|
G|-----7-----7---7-----6-----6---6-----2-----2---2-----2-----2---2-|
D|-----------------------------------------------------------------|
A|-5-5---5-5---5---4-4---4-4---4---0-0---0-0---0---0-0---0-0---0---|
D|-----------------------------------------------------------------|

   G		   F#		   D
e|-----------------------------------------------------------------|
B|-----------------------------------------------------------------|
G|-----------------------------------------------------------------|
D|-----5-----5---5-----4-----4---4-----0-----0---0-----0-----0---0-|
A|-----------------------------------------------------------------|
D|-5-5---5-5---5---4-4---4-4---4---0-0---0-0---0---0-0---0-0---0---|

Chorus:

   A		    G
e|--------------------------------------|
B|--------------------------------------|
G|--------------------------------------|
D|-7-7-7h9-9h11b-9--5-5-7h9-7/12-12-12--|
A|-7-7--------------5-5-----------------|
D|-7-7--------------5-5-----------------|

Sorry I didn't tab the leads and solos.... they're too hard for me to figure out.
Just mess around in the key of D.
Comments